Blink 182 - I Wont Be Home For Christmas Chords & Tabs

 

I Wont Be Home For Christmas Chords & Tabs

Blink 182 Chords & Tabs

Version: 3 Type: Tab 0 ratings
1 star 2 stars 3 stars 4 stars 5 stars
comments

I Wont Be Home For Christmas Tab

I can't believe not too many people can get this inro down... well this is as close to perfect as i can get it...but there still may be a few mess ups..keep me posted..
[ Tab from: http://www.guitartabs.cc/tabs/b/blink_182/i_wont_be_home_for_christmas_tab_ver_3.html ]
E-------------------------------------------------
A-------------------------------------------------
D-----------4-0--5-0--4-0-----0-4-0------0-4-0----
G---5-5-5-5---------------2-2--------2-2----------
B-------------------------------------------------
E-------------------------------------------------

E----------------------------------------------
A----------------------------------------------
D--------0-4-0-5-0-4-2-0------0-4-0-----0-4-0--
G---0-0-----------------------------0-0--------
B-------------------------3-3------------------
E----------------------------------------------
Comments