Blink 182 - I Miss You Ver Chords & Tabs

 

I Miss You Ver Chords & Tabs

Blink 182 Chords & Tabs

Version: 1 Type: Tab 2 ratings
1 star 2 stars 3 stars 4 stars 5 stars
comments

I Miss You Ver Tab

tabbed by andy
this is my take for a solo version of the song

intro and verse:  (listen to song for strumming)

e|-|-----------------------------------|-|--------------------------------------|-|
B|-|-----------------------------------|-|--------------------------------------|-|
G|-|-----------------------------------|-|--------------------------------------|-|
D|-|9-s-13---8-s-13---6-s-13---8-s-13--|-|--------------------------------------|-|
A|-|x-s--x---x-s--x---x-s--x---x-s--x--|-|--------------------------------------|-|
E|-|7-s-11---6-s-11---4-s-11---6-s-11--|-|--------------------------------------|-|


then the bridge:
[ Tab from: http://www.guitartabs.cc/tabs/b/blink_182/i_miss_you_ver_tab.html ]
e|-|-----------------------------------|-|--------------------------------------|-|
B|-|-----------------------------------|-|--------------------------------------|-|
G|-|4-6-8-11-9-8-4---------------- ----|-|--------------------------------------|-|
D|-|x-x-x-x--x-x-x----------------- ---|-|--------------------------------------|-|
A|-|2-4-6-9--7-6-2---------------------|-|--------------------------------------|-|
E|-|-----------------------------------|-|--------------------------------------|-|



chorus: (same as bridge)
e|-|----------------------------------------------------------------|-|
B|-|----------------------------------------------------------------|-|
G|-|4-----------6---------8-----11-------------9---------8------4---|-|
D|-|x-----------x---------x-----x--------------x---------x------x---|-|
A|-|2-----------4---------6------9-------------7---------6------2---|-|
E|-|----------------------------------------------------------------|-|
    Don't waste your time on me you're already The voice inside my head 
Comments