Blink 182 - I Miss You Chords & Tabs

 

I Miss You Chords & Tabs

Blink 182 Chords & Tabs

Version: 8 Type: Tab 0 ratings
1 star 2 stars 3 stars 4 stars 5 stars
comments

I Miss You Tab

  I Miss You(from TAB BOOK -Intro)- Blink 182  Tabbed by:Anonymous
-----------------------------------------------------------------------------
This is from their tab book so it's 100%. Really easy and great for beginners.
Blink 182 is the best band ever! Great song.

 /  slide up
 \  slide down

NOTE: where it says (x3) it is for the 0's too.
[ Tab from: http://www.guitartabs.cc/tabs/b/blink_182/i_miss_you_tab_ver_8.html ]
e|---------------------------------------------------------------------------|
B|------------------------------------------------10--------------------10---|
G|---------------------------------------------------------------------------|
D|--0-0-0-0-0-0--------0-0-0-0-0-0-0-----------12----0-0-0-0-0-0-----11------|
A|--5-5-5/9-9-9(x3)----5-5-5/9-9-9\5-----------------5-5-5/9-9-9-------------|
E|---------------------------------------------------------------------------|

e|---------------------------------------------------------------------------|
B|--------------------12---10--------------------------10--------------------|
G|---------------------------------------------------------------------------|
D|--0-0-0-0-0-0----------9-------0-0-0-0-0-0--------11--------0-0-0-0-0-0-0--|
A|--5-5-5/9-9-9------------------5-5-5/9-9-9------------------5-5-5/9-9-9\5--|
E|---------------------------------------------------------------------------|

hello there
the angel from my nightmare....


GOOD LUCK!
Comments