Blink 182 - I Miss You Correct Chords & Tabs

 

I Miss You Correct Chords & Tabs

Blink 182 Chords & Tabs

Version: 1 Type: Tab 6 ratings
1 star 2 stars 3 stars 4 stars 5 stars
comments

I Miss You Correct Tab

Tabbed by Colin Baillio
I Miss You
by Blink 182
Tune 1 1/2 Steps Down

/=Slide

Intro/Verse
1-------------------------------
2-------------------------------
3-------------------------------
4---0--0--0-0---0-0--0-0--
5---5/-9--9-9---5/-9--9-9-
6------------------------------ (Until 'We'll wish this never ends')
[ Tab from: http://www.guitartabs.cc/tabs/b/blink_182/i_miss_you_correct_tab.html ]
Chorus
1-------------------------------
2-------------------------------
3---7-7---7-7---7--7--7-7-
4---x--x---x-x---x--x---x-x-
5---5--5--5-5---5--5--5-5-
6-------------------------------  X8

Bridge
1-------------------------------
2-------------------------------
3-------------------------------
4---0--0--0-0---0-0--0-0--
5---5/-9--9-9---5/-9--9-9--
6-------------------------------- 

Comments