Blink 182 - Hold On Chords & Tabs

 

Hold On Chords & Tabs

Blink 182 Chords & Tabs

Version: 2 Type: Tab 0 ratings
1 star 2 stars 3 stars 4 stars 5 stars
comments

Hold On Tab

Song:Hold On
Band:Blink 182
Album: Take Off Your Pants And Jacket (Green Version)
Tabbed by:Eric M. (rufioyc@hotmail.com)

Intro
e|------------------------------------------------------------------------|
B|------------------------------------------------------------------------|
G|----5~(let ring)-5-5-----------5~------------5-5------------------------|
D|----5~-----------5-5-----------5~------------5-5------------------------|
A|----3~-----------3-3-----------3~------------3-3------------------------|
E|------------------------------------------------------------------------|

"hold on... hold on..."
e|-------------------------------------------------------------------------|
B|---------------------------(figure out how many times to play)-----------|
G|----5-5-5-5-5-5-5-5-5----------------------------------------------------|
D|----x-x-x-x-x-x-x-x-x----------------------------------------------------|
A|----3-3-3-3-3-3-3-3-3.....-----------------------------------------------|
E|-------------------------------------------------------------------------|
[ Tab from: http://www.guitartabs.cc/tabs/b/blink_182/hold_on_tab_ver_2.html ]
Chorus/Verse (x4)  (play each chord more times for verse)
e|------------------------------------------------------------------------|
B|------------------------------------------------------------------------|
G|----5-5-5-5-5-5-5-5-----------------------------------------------------|
D|----5-5-5-5-5-5-5-5--5-5-5-5--3-3-3-3-----------------------------------|
A|----3-3-3-3-3-3-3-3--5-5-5-5--3-3-3-3-----------------------------------|
E|---------------------3-3-3-3--1-1-1-1-----------------------------------|

Bridge (x4)
e|------------------------------------------------------------------------|
B|------------------------------------------------------------------------|
G|----2--0--2-----2-------------------------------------------------------|
D|-------------3-----3----------------------------------------------------|
A|------------------------------------------------------------------------|
E|------------------------------------------------------------------------|

Interlude
e|------------------------------------------------------------------------|
B|------------------------------------------------------------------------|
G|----55555555555-------22-------------55555555555------------------------|
D|----55555555555-55555-22-333333-(x2)-55555555555-55555-33333333-(x2)----|
A|----33333333333-55555-00-333333------33333333333-55555-33333333---------|
E|----------------33333----111111------------------33333-11111111---------|

End on...
e|------------------------------------------------------------------------|
B|------------------------------------------------------------------------|
G|----5~------------------------------------------------------------------|
D|----5~------------------------------------------------------------------|
A|----3~------------------------------------------------------------------|
E|------------------------------------------------------------------------|
Comments