Blink 182 - Hold On Bonus Track Chords & Tabs

 

Hold On Bonus Track Chords & Tabs

Blink 182 Chords & Tabs

Version: 1 Type: Tab 0 ratings
1 star 2 stars 3 stars 4 stars 5 stars
comments

Hold On Bonus Track Tab

   
Song: Hold On *bonus track 14 from green version*
Artist: Blink 182
Album: Take Off Your Pants and Jacket (2001)
Written by Blink 182
Transcribed by Anna-Louise (veggiehead85@cs.com)

This is 100% correct.  It's very simple & Tom himself checked it.  I get him to check all my transcriptions......seriously

Chords used:
E --------------------------
B --------------------------
G ----5--------------------
D ----5----5----3----7---
A ----3----5----3----7---
E ---------3----1----5---
       C   G    F   A5
[ Tab from: http://www.guitartabs.cc/tabs/b/blink_182/hold_on_bonus_track_tab.html ]
	Strumming isn't all written out, you'll figure it out yourself
	
	Intro                                      Interlude  "hold on, hold on..."
E ------------------------------------------------------------------------
B ------------------------------------------------------------------------
G ----5------5--5------5------5--5------------5--5--5--5--5------
D ----5------5--5------5------5--5------------5--5--5--5--5-------
A ----3------3--3------3------3--3------------3--3--3--3--3------
E -----------------------------------------------------------------------
	
	Verse
E --------------------------------------------
B -------------------------------------------
G ----5xxxxxx---------------------------
D ----5xxxxxx-----5xxx----3xxx----
A ----3xxxxxx-----5xxx----3xxx---
E ----------------3xxx----1xxx----

	Riff
E ---------------------------------------
B ---------------------------------------
G ----------------------------------------
D --------2--0--2-----------2--0------
A ----3------------------3---------------
E ---------------------------------------
       
	Chorus
E -------------------------------------------------
B -------------------------------------------------
G ----5--5--5--5--5-----------------------------
D ----5--5--5--5--5-----5--5-----3--3-------
A ----3--3--3--3--3-----5--5-----3--3-------
E ----------------------3--3-----1--1------

	Bridge (distorted)
E --------------------------------------------------------
B --------------------------------------------------------
G ----5--5--5--5--5-----------------------------------
D ----5--5--5--5--5-----5--5-----7--7-----3--3-----
A ----3--3--3--3--3-----5--5-----7--7-----3--3-----
E ----------------------3--3-----5--5-----1--1-----
 
	Order:
Intro
Interlude
Chorus
Riff
Verse
Interlude
Riff
Bridge
Chorus
End on C
	
	That's it!  Enjoy!
Comments