Blink 182 - Heres Your Letter Chords & Tabs

 

Heres Your Letter Chords & Tabs

Blink 182 Chords & Tabs

Version: 1 Type: Tab 0 ratings
1 star 2 stars 3 stars 4 stars 5 stars
comments

Heres Your Letter Tab

Great song, great lyrics, i might be a little off on some of the chords,
Email me corrections. My first tab
New Cd is quite different, but im not complaining.

Intro
E--------------
B--------------
G-----7--2--4--
D--4--7--2--4--
A--4--5--0--2--
E--2-----------

E--------------
B--------------
G-----7--2-----
D--4--7--2-----
A--4--5--0-----
E--2-----------

Verse(pm)
E--------------
B--------------
G-----7--2--4--
D--4--7--2--4--
A--4--5--0--2--
E--2-----------
[ Tab from: http://www.guitartabs.cc/tabs/b/blink_182/heres_your_letter_tab.html ]
E-----------
B-----------
G-----7--2--
D--4--7--2--
A--4--5--0--
E--2--------

Chorus
E-----------------------------
B-----------------------------
G--------------------------7--
D--7--11--4--6--7----------7--
A--7--11--4--6--7--(then)--5--
E--5--9---2--4--5-------------

Outro
E-----------
B-----------
G--6--7-----
D--x--7-----
A--4--5-----
E-----------

E-----------
B-----------
G-----9--7--
D--4--9--7--
A--4--7--5--
E--2--------

End on
E------
B------
G--2---
D--2---
A--0---
E------


Intro
Verse
Chorus
Intro
Verse
Chorus
Outro
Chorus
Intro
Comments