Blink 182 - Happy Holidays You Bastard Chords & Tabs

 

Happy Holidays You Bastard Chords & Tabs

Blink 182 Chords & Tabs

Version: 4 Type: Tab 0 ratings
1 star 2 stars 3 stars 4 stars 5 stars
comments

Happy Holidays You Bastard Tab

Blink 182
Happy Holidays, You Bastard
Take Your Pants Off And Jacket
Tabbed By James Low whatisaturnip@yahoo.co.uk
Standard Tuning (EADGBE)

--------------------------------------------------------|
--------------------------------------------------------|
--4-----------------------------------------------------|
--4---4-------6---2-------------------------------------|
--2---4-------6---2-------------------------------------|
------2-------4---0-------------------------------------|
[ Tab from: http://www.guitartabs.cc/tabs/b/blink_182/happy_holidays_you_bastard_tab_ver_4.html ]
--------------------------------------------------------|
--------------------------------------------------------|
--4-----------------------------------------------------|
--4--4--2--4--------------------------------------------|
--2--4--2--4--------------------------------------------|
-----2--0--2--------------------------------------------|

--------------------------------------------------------|
--------------------------------------------------------|
--4---------twice---4-----------4------4----------------|
--4--4--2-----------4--4--2--4--4------4----------------|
--2--4--2-----------2--4--2--4--2------2----------------|
-----2--0--------------2--0--2--------------------------|
Comments