Blink 182 - Growing Up Chords & Tabs

 

Growing Up Chords & Tabs

Blink 182 Chords & Tabs

Version: 1 Type: Tab

Growing Up Tab

Blink_182-Growing up

Intro#1
[ Tab from: http://www.guitartabs.cc/tabs/b/blink_182/growing_up_tab.html ]
E---------- ----------- ----------- -----------
B---------- ----------- ----------- -----------
G---------- ----------- ----------- -----------
D----0-0-2- -----0-0-2- -----0-0-2- -----2-2-0-
A-3-3------ ----------- -0-0------- -----------
E---------- -3-3------- ----------- -1-1-------

Intro#2

E----------- ----------- ----------- -----------
B----------- ----------- ----------- -----------
G----------- ----------- ----------- -----------
D----------- ----------- -----0-0-2- -----2-2-0-
A-3-3-5-5-7- -----5-5-7- -0-0------- -----------
E----------- -3-3------- ----------- -1-1-------