Blink 182 - Going Away To College Chords & Tabs

 

Going Away To College Chords & Tabs

Blink 182 Chords & Tabs

Version: 9 Type: Tab 0 ratings
1 star 2 stars 3 stars 4 stars 5 stars
comments

Going Away To College Tab

This was tabbed by: Blinker27
Blink-182: Going Away To College
email me at - blinker37@aol.com

heres a good sounding version of going away to college... probably 
not right... but good. 


intro part 1... play this kinda soft
-----------------------------------------------------------------
-----------------------------------------------------------------
--8-8--8-8-8---8--8--8--8--8------8-8--8-8-8----8--8--8--8--8----
--9-9--9-9-9--11-11-11-11-11--X2--9-9--9-9-9---11-11-11-11-11--X2
----------------------------------7-7--7-7-7----7--7--7--7--7----
--7-7--7-7-7---7--7--7--7--7-------------------------------------

Whole intro 1 - X2

[ Tab from: http://www.guitartabs.cc/tabs/b/blink_182/going_away_to_college_tab_ver_9.html ]
intro part 2 play 2 times
-------------------------------------------------
------------4-----------4------------4------2---2
------4-----------4------------4-----------------  
---------------------------2-2---2-2-----4----4--
--2-2---2-2---2-2---2-2--------------------------  
-------------------------------------------------

i dont really know the chords after this part... but
here are the ones where he sings the part where hes like:

I haven't been this scared, in a long time


---------------------------------
---------------------------------
-8-8-8-8-8-8-8-8--9-9-9-9-9-9-9-9
-x-x-x-x-x-x-x-x--x-x-x-x-x-x-x-x
-6-6-6-6-6-6-6-6--7-7-7-7-7-7-7-7
---------------------------------

and im so unprepared, so heres your valentine
---------------------------------
---------------------------------
---------------------------------
-9-9-9-9-9-9-9-9--4-4-4-4-4-4-4-4
-9-9-9-9-9-9-9-9--4-4-4-4-4-4-4-4
-7-7-7-7-7-7-7-7--2-2-2-2-2-2-2-2

then u go back to intro 1 and play this again
and your done......... have fun!

BLinkeR 37@aol.com
Comments