Blink 182 - Going Away To College Chords & Tabs

 

Going Away To College Chords & Tabs

Blink 182 Chords & Tabs

Version: 5 Type: Tab 0 ratings
1 star 2 stars 3 stars 4 stars 5 stars
comments

Going Away To College Tab

Blink 182 Going Away to College.
 Tabbed by Mark Waldron mark32@music.com.
  
|-------------|-----------|-------------|-----------|
|-2-2-2-2-2-2-|-0-0-0-0-0-|-2-2-2-2-2-2-|-0-0-0-----|
|-2-2-2-2-2-2-|-2-2-2-2-2-|-2-2-2-2-2-2-|-2-2-2-0-0-|
|-x-x-x-x-x-x-|-x-x-x-x-x-|-x-x-x-x-x-x-|-x-x-x-0-0-|
|-0-0-0-0-0-0-|-0-0-0-0-0-|-0-0-0-0-0-0-|-0-0-0-0-0-|
|-------------|-----------|-------------|-----------|

|-------------|-------------|-------------|
|-2-2-2-2-2-2-|-0-0-0-0-0-0-|-2-2-2-2-2-2-|
|-2-2-2-2-2-2-|-2-2-2-2-2-2-|-2-2-2-2-2-2-|
|-0-0-0-0-0-0-|-0-0-0-0-0-0-|-0-0-0-0-0-0-|
|-------------|-------------|-------------|
|-------------|-------------|-------------|
              Dist.
|-------------|-------------|-------------|
|-0-0-0-0-2-2-|-------------|-------------|
|-2-2-2-2-2-2-|-----------6-|-----------6-|
|-0-0-0-0-x-x-|-----7-------|-----7-------|
|---------0-0-|-0-0---0-0---|-0-0---0-0---|
|-------------|-------------|-------------|

|-------------|-------------|---|
|-------------|-------------|---|
|-----------6-|-------------|-2-|
|-----7-------|-----9-----9-|-2-|
|-5-5---5-5---|-7-7---7-7---|-0-|
|-------------|-------------|---|
[ Tab from: http://www.guitartabs.cc/tabs/b/blink_182/going_away_to_college_tab_ver_5.html ]
|-----|-----|-----------|-------------|
|-----|-----|-----------|-------------|
|-2-2-|-2-2-|-7-7-7-7-7-|-9-9-9-9-9-9-|
|-2-2-|-2-2-|-7-7-7-7-7-|-9-9-9-9-9-9-|
|-0-0-|-0-0-|-5-5-5-5-5-|-7-7-7-7-7-7-|
|-----|-----|-----------|-------------|

Interlude
|---------|-------------|---------|---------|
|---------|-------------|---------|---------|
|-6-6-6-6-|-7-7-7-7-7-7-|-2-2-2-2-|---------|
|-x-x-x-x-|-x-x-x-x-x-x-|-2-2-2-2-|-2-2-2-2-|
|-4-4-4-4-|-5-5-5-5-5-5-|-0-0-0-0-|-2-2-2-2-|
|---------|-------------|---------|-0-0-0-0-|

|-------------|-----------|---------|---|
|-------------|-----------|---------|---|
|-6-6-6-6-6-6-|-7-7-7-7-7-|-2-2-2-2-|---|
|-x-x-x-x-x-x-|-x-x-x-x-x-|-2-2-2-2-|-2-|
|-4-4-4-4-4-4-|-5-5-5-5-5-|-0-0-0-0-|-2-|
|-------------|-----------|---------|-0-|

Verse
pm---|  pm---|   pm---|  pm---|   pm---|  pm---|
|----------------|----------------|----------------|
|----------------|----------------|----------------|
|------6-------6-|------6-------6-|------6-------6-|
|----------------|----------------|----------------|
|-0-0-----0-0----|-0-0-----0-0----|-5-5-----5-5----|
|----------------|----------------|----------------|
pm---|  pm---|
|----------------|
|----------------|
|------7-------7-|
|----------------|
|-7-7-----7-7----|
|----------------|
Ending
|---------|---|---------------|---|
|---------|---|-0-0-0-0-0-0-0-|---|
|-2-2-2-2-|---|-2-2-2-2-2-2-2-|---|
|-2-2-2-2-|-2-|-0-0-0-0-0-0-0-|-2-|
|-0-0-0-0-|-2-|---------------|-2-|
|---------|-0-|---------------|-0-| 
:: Ultimate Guitar Archive :: 
http://www.ultimate-guitar.com 



Comments