Blink 182 - Going Away To College Chords & Tabs

 

Going Away To College Chords & Tabs

Blink 182 Chords & Tabs

Version: 13 Type: Tab 0 ratings
1 star 2 stars 3 stars 4 stars 5 stars
comments

Going Away To College Tab

   
Blink-182 - Going Away To College

This is, as far as I know, the only right version of this song. The frustration.
Anyway, enjoy.

Capo on 2nd fret. All notes and chords relative to capo.
  
  (w/clean tone)
    A             Asus2           A                Asus2

E |-x---x---x-x-x-x---x-x---x-x-x-x--|-x-x---x-x-x-x---x-x---x-x-x-x----|
B |-x---x---x-x-x-x---x-x---x-x-x-x--|-x-x---x-x-x-x---x-x---x-x-x-x----|
G |-6---6---6-6-6-x---x-x---x-x-x-6--|-6-6---6-6-6-x---x-x---x-x-x-x----|
D |-7---7---7-7-7-9---9-9---9-9-9-7--|-7-7---7-7-7-9---9-9---9-9-9-9----|
A |-0---0---0-0-0-0---0-0---0-0-0-0--|-0-0---0-0-0-0---0-0---0-0-0-0----|
E |-x---x---x-x-x-x---x-x---x-x-x-x--|-x-x---x-x-x-x---x-x---x-x-x-x----|
  
    Dmaj7         D6              Dmaj7            D6

E |-x---x---x-x-x-x---x-x---x-x-x-x--|-x-x---x-x-x-x---x-x---x-x-x-x----|
B |-2---2---2-2-2-x---x-x---x-x-x-2--|-2-2---2-2-2-x---x-x---x-x-x-x----|
G |-2---2---2-2-2-4---4-4---4-4-4-2--|-2-2---2-2-2-4---4-4---4-4-4-4----|
D |-0---0---0-0-0-0---0-0---0-0-0-0--|-0-0---0-0-0-0---0-0---0-0-0-0----|
A |-x---x---x-x-x-x---x-x---x-x-x-x--|-x-x---x-x-x-x---x-x---x-x-x-x----|
E |-x---x---x-x-x-x---x-x---x-x-x-x--|-x-x---x-x-x-x---x-x---x-x-x-x----

    A             Asus2           A                Asus2
 
E |-x---x---x-x-x-x---x-x---x-x-x-x--|-x-x---x-x-x-x---x-x---x-x-x-x----|
B |-x---x---x-x-x-x---x-x---x-x-x-x--|-x-x---x-x-x-x---x-x---x-x-x-x----|
G |-6---6---6-6-6-x---x-x---x-x-x-6--|-6-6---6-6-6-x---x-x---x-x-x-x----|
D |-7---7---7-7-7-9---9-9---9-9-9-7--|-7-7---7-7-7-9---9-9---9-9-9-9----|
A |-0---0---0-0-0-0---0-0---0-0-0-0--|-0-0---0-0-0-0---0-0---0-0-0-0----|
E |-x---x---x-x-x-x---x-x---x-x-x-x--|-x-x---x-x-x-x---x-x---x-x-x-x----|

     Dmaj7        D6              Dmaj7            D6

E |-x---x---x-x-x-x---x-x---x-x-x-x--|-x-x---x-x-x-x--------------------|
B |-2---2---2-2-2-x---x-x---x-x-x-2--|-2-2---2-2-2-x--------------------|
G |-2---2---2-2-2-4---4-4---4-4-4-2--|-2-2---2-2-2-4-----(4)-----(4)----|
D |-0---0---0-0-0-0---0-0---0-0-0-0--|-0-0---0-0-0-0-----(0)-----(0)----|
A |-x---x---x-x-x-x---x-x---x-x-x-x--|-x-x---x-x-x-x--------------------|
E |-x---x---x-x-x-x---x-x---x-x-x-x--|-x-x---x-x-x-x--------------------|

  (w/distortion)
     A                                 D               E

E |----------------------------------|----------------------------------|
B |----------------------------------|----------------------------------|
G |-------------6---------------6----|-------------6--------------------|
D |-----7---------------7------------|-----7---------------9-------9----|
A |-0-0-----0-0-----0-0-----0-0------|-5-5-----5-5-----7-7-----7-7------|
E |----------------------------------|----------------------------------|

    A                                  D               E

E |----------------------------------|----------------------------------|
B |----------------------------------|----------------------------------|
G |-------------6---------------6----|-------------6--------------------|
D |-----7---------------7------------|-----7---------------9-------9----|
A |-0-0-----0-0-----0-0-----0-0------|-5-5-----5-5-----7-7-----7-7------|
E |----------------------------------|----------------------------------|

    A

E |----------------------------------|----------------------------------|
B |----------------------------------|----R-----------------------------|
G |----------------------------------|-----E---X3-----------------------|
D |-7------(7)-----(7)-----(7)-------|------S---------------------------|
A |-7------(7)-----(7)-----(7)-------|-------T--------------------------|
E |-5------(5)-----(5)-----(5)-------|----------------------------------|

        A                              D               E              
  
E |----------------------------------|----------------------------------|
B |----------------------------------|----------------------------------|
G |----------------------------------|-7---7-7-7-7-7-7-9---9-9-9-9-9-9--|
D |-----7-------7---7---7-7-7-7-7-7--|-7---7-7-7-7-7-7-9---9-9-9-9-9-9--|
A |-----7-------7---7---7-7-7-7-7-7--|-5---5-5-5-5-5-5-7---7-7-7-7-7-7--|
E |-----5-------5---5---5-5-5-5-5-5--|----------------------------------|

        A                              D               E 

E |----------------------------------|----------------------------------|
B |----------------------------------|----------------------------------|
G |----------------------------------|-7---7-7-7-7-7-7-9---9-9-9-9-9-9--|
D |-----7-------7---7---7-7-7-7-7-7--|-7---7-7-7-7-7-7-9---9-9-9-9-9-9--|
A |-----7-------7---7---7-7-7-7-7-7--|-5---5-5-5-5-5-5-7---7-7-7-7-7-7--|
E |-----5-------5---5---5-5-5-5-5-5--|----------------------------------|

    A                                  D               E

E |----------------------------------|----------------------------------|
B |----------------------------------|----------------------------------|
G |-------------6---------------6----|-------------6--------------------|
D |-----7---------------7------------|-----7---------------9-------9----|
A |-0-0-----0-0-----0-0-----0-0------|-5-5-----5-5-----7-7-----7-7------|
E |----------------------------------|----------------------------------|

    A                                  D               E

E |----------------------------------|----------------------------------|
B |----------------------------------|----------------------------------|
G |-------------6---------------6----|-------------6--------------------|
D |-----7---------------7------------|-----7---------------9-------9----|
A |-0-0-----0-0-----0-0-----0-0------|-5-5-----5-5-----7-7-----7-7------|
E |----------------------------------|----------------------------------|

    A

E |----------------------------------|----------------------------------|
B |----------------------------------|----R-----------------------------|
G |----------------------------------|-----E---X3-----------------------|
D |-7------(7)-----(7)-----(7)-------|------S---------------------------|
A |-7------(7)-----(7)-----(7)-------|-------T--------------------------|
E |-5------(5)-----(5)-----(5)-------|----------------------------------|

        A                              D               E              
  
E |----------------------------------|----------------------------------|
B |----------------------------------|----------------------------------|
G |----------------------------------|-7---7-7-7-7-7-7-9---9-9-9-9-9-9--|
D |-----7-------7---7---7-7-7-7-7-7--|-7---7-7-7-7-7-7-9---9-9-9-9-9-9--|
A |-----7-------7---7---7-7-7-7-7-7--|-5---5-5-5-5-5-5-7---7-7-7-7-7-7--|
E |-----5-------5---5---5-5-5-5-5-5--|----------------------------------|

        A                              D               E              
  
E |----------------------------------|----------------------------------|
B |----------------------------------|----------------------------------|
G |----------------------------------|-7---7-7-7-7-7-7-9---9-9-9-9-9-9--|
D |-----7-------7---7---7-7-7-7-7-7--|-7---7-7-7-7-7-7-9---9-9-9-9-9-9--|
A |-----7-------7---7---7-7-7-7-7-7--|-5---5-5-5-5-5-5-7---7-7-7-7-7-7--|
E |-----5-------5---5---5-5-5-5-5-5--|----------------------------------|

    F#min           D                  A               E   

E |----------------------------------|----------------------------------|
B |----------------------------------|----------------------------------|
G |-6---6-6-6-6-6-6-7---7-7-7-7-7-7--|----------------------------------|
D |-x---x-x-x-x-x-x-7---7-7-7-7-7-7--|-7---7-7-7-7-7-7-2---2-2-2-2-2-2--|
A |-4---4-4-4-4-4-4-5---5-5-5-5-5-5--|-7---7-7-7-7-7-7-2---2-2-2-2-2-2--|
E |----------------------------------|-5---5-5-5-5-5-5-0---0-0-0-0-0-0--|

    F#min           D                  A               E   

E |----------------------------------|----------------------------------|
B |----------------------------------|----------------------------------|
G |-6---6-6-6-6-6-6-7---7-7-7-7-7-7--|----------------------------------|
D |-x---x-x-x-x-x-x-7---7-7-7-7-7-7--|-7---7-7-7-7-7-7-2---2-2-2-2-2-2--|
A |-4---4-4-4-4-4-4-5---5-5-5-5-5-5--|-7---7-7-7-7-7-7-2---2-2-2-2-2-2--|
E |----------------------------------|-5---5-5-5-5-5-5-0---0-0-0-0-0-0--|

    F#min           D                  A               E   

E |----------------------------------|----------------------------------|
B |----------------------------------|----------------------------------|
G |-6---6-6-6-6-6-6-7---7-7-7-7-7-7--|----------------------------------|
D |-x---x-x-x-x-x-x-7---7-7-7-7-7-7--|-7---7-7-7-7-7-7-2---2-2-2-2-2-2--|
A |-4---4-4-4-4-4-4-5---5-5-5-5-5-5--|-7---7-7-7-7-7-7-2---2-2-2-2-2-2--|
E |----------------------------------|-5---5-5-5-5-5-5-0---0-0-0-0-0-0--|

    F#min           D                  A               E

E |----------------------------------|----------------------------------|
B |----------------------------------|----------------------------------|
G |-6---6-6-6-6-6-6-7---7-7-7-7-7-7--|----------------------------------|
D |-x---x-x-x-x-x-x-7---7-7-7-7-7-7--|-7---7-7-7-7-7-7-2-----(2)--------|
A |-4---4-4-4-4-4-4-5---5-5-5-5-5-5--|-7---7-7-7-7-7-7-2-----(2)--------|
E |----------------------------------|-5---5-5-5-5-5-5-0-----(0)--------|

    A                                  D               E
[ Tab from: http://www.guitartabs.cc/tabs/b/blink_182/going_away_to_college_tab_ver_13.html ]
E |----------------------------------|----------------------------------|
B |----------------------------------|----------------------------------|
G |-------------6---------------6----|-------------6--------------------|
D |-----7---------------7------------|-----7---------------9-------9----|
A |-0-0-----0-0-----0-0-----0-0------|-5-5-----5-5-----7-7-----7-7------|
E |----------------------------------|----------------------------------|

    A                                  D               E

E |----------------------------------|----------------------------------|
B |----------------------------------|----------------------------------|
G |-------------6---------------6----|-------------6--------------------|
D |-----7---------------7------------|-----7---------------9-------9----|
A |-0-0-----0-0-----0-0-----0-0------|-5-5-----5-5-----7-7-----7-7------|
E |----------------------------------|----------------------------------|

    A                                  D               E

E |----------------------------------|----------------------------------|
B |----------------------------------|----------------------------------|
G |-----6-------6-------6-------6----|-----6-------6-------7------------|
D |----------------------------------|-----------------------------7----|
A |-0-0-----0-0-----0-0-----0-0------|-5-5-----5-5-----7-7-----7-7------|
E |----------------------------------|----------------------------------|
P.M ...     ...     ...     ...        ...     ...     ...     ...
    
     A                                 D               E

E |----------------------------------|----------------------------------|
B |----------------------------------|----------------------------------|
G |-----6-------6-------6-------6----|-----6-------6-------7------------|
D |----------------------------------|-----------------------------7----|
A |-0-0-----0-0-----0-0-----0-0------|-5-5-----5-5-----7-7-----7-7------|
E |----------------------------------|----------------------------------|
P.M ...     ...     ...     ...        ...     ...     ...     ...

         A                             D               E              
  
E |----------------------------------|----------------------------------|
B |----------------------------------|----------------------------------|
G |----------------------------------|-7---7-7-7-7-7-7-9---9-9-9-9-9-9--|
D |-----7-------7---7---7-7-7-7-7-7--|-7---7-7-7-7-7-7-9---9-9-9-9-9-9--|
A |-----7-------7---7---7-7-7-7-7-7--|-5---5-5-5-5-5-5-7---7-7-7-7-7-7--|
E |-----5-------5---5---5-5-5-5-5-5--|----------------------------------|

        A                              D               E 

E |----------------------------------|----------------------------------|
B |----------------------------------|----------------------------------|
G |----------------------------------|-7---7-7-7-7-7-7-9---9-9-9-9-9-9--|
D |-----7-------7---7---7-7-7-7-7-7--|-7---7-7-7-7-7-7-9---9-9-9-9-9-9--|
A |-----7-------7---7---7-7-7-7-7-7--|-5---5-5-5-5-5-5-7---7-7-7-7-7-7--|
E |-----5-------5---5---5-5-5-5-5-5--|----------------------------------|

    F#min           D                  A               E   

E |----------------------------------|----------------------------------|
B |----------------------------------|----------------------------------|
G |-6---6-6-6-6-6-6-7---7-7-7-7-7-7--|----------------------------------|
D |-x---x-x-x-x-x-x-7---7-7-7-7-7-7--|-7---7-7-7-7-7-7-2---2-2-2-2-2-2--|
A |-4---4-4-4-4-4-4-5---5-5-5-5-5-5--|-7---7-7-7-7-7-7-2---2-2-2-2-2-2--|
E |----------------------------------|-5---5-5-5-5-5-5-0---0-0-0-0-0-0--|
     
    F#min           D                  A               E   

E |----------------------------------|----------------------------------|
B |----------------------------------|----------------------------------|
G |-6---6-6-6-6-6-6-7---7-7-7-7-7-7--|----------------------------------|
D |-x---x-x-x-x-x-x-7---7-7-7-7-7-7--|-7---7-7-7-7-7-7-2---2-2-2-2-2-2--|
A |-4---4-4-4-4-4-4-5---5-5-5-5-5-5--|-7---7-7-7-7-7-7-2---2-2-2-2-2-2--|
E |----------------------------------|-5---5-5-5-5-5-5-0---0-0-0-0-0-0--|

    F#min           D                  A               E   

E |----------------------------------|----------------------------------|
B |----------------------------------|----------------------------------|
G |-6---6-6-6-6-6-6-7---7-7-7-7-7-7--|----------------------------------|
D |-x---x-x-x-x-x-x-7---7-7-7-7-7-7--|-7---7-7-7-7-7-7-2---2-2-2-2-2-2--|
A |-4---4-4-4-4-4-4-5---5-5-5-5-5-5--|-7---7-7-7-7-7-7-2---2-2-2-2-2-2--|
E |----------------------------------|-5---5-5-5-5-5-5-0---0-0-0-0-0-0--|

    F#min           D                  A               E

E |----------------------------------|----------------------------------|
B |----------------------------------|----------------------------------|
G |-6---6-6-6-6-6-6-7---7-7-7-7-7-7--|----------------------------------|
D |-x---x-x-x-x-x-x-7---7-7-7-7-7-7--|-7---7-7-7-7-7-7-2-----(2)--------|
A |-4---4-4-4-4-4-4-5---5-5-5-5-5-5--|-7---7-7-7-7-7-7-2-----(2)--------|
E |----------------------------------|-5---5-5-5-5-5-5-0-----(0)--------|

    (E)

E |----------------|
B |----------------|
G |----------------|
D |-(2)-----(2)----|
A |-(2)-----(2)----|
E |-(0)-----(0)----|

  (w/clean tone)
    A             Asus2           A                Asus2

E |-x---x---x-x-x-x---x-x---x-x-x-x--|-x-x---x-x-x-x---x-x---x-x-x-x----|
B |-x---x---x-x-x-x---x-x---x-x-x-x--|-x-x---x-x-x-x---x-x---x-x-x-x----|
G |-6---6---6-6-6-x---x-x---x-x-x-6--|-6-6---6-6-6-x---x-x---x-x-x-x----|
D |-7---7---7-7-7-9---9-9---9-9-9-7--|-7-7---7-7-7-9---9-9---9-9-9-9----|
A |-0---0---0-0-0-0---0-0---0-0-0-0--|-0-0---0-0-0-0---0-0---0-0-0-0----|
E |-x---x---x-x-x-x---x-x---x-x-x-x--|-x-x---x-x-x-x---x-x---x-x-x-x----|
  
    Dmaj7         D6              Dmaj7            D6

E |-x---x---x-x-x-x---x-x---x-x-x-x--|-x-x---x-x-x-x---x-x---x-x-x-x----|
B |-2---2---2-2-2-x---x-x---x-x-x-2--|-2-2---2-2-2-x---x-x---x-x-x-x----|
G |-2---2---2-2-2-4---4-4---4-4-4-2--|-2-2---2-2-2-4---4-4---4-4-4-4----|
D |-0---0---0-0-0-0---0-0---0-0-0-0--|-0-0---0-0-0-0---0-0---0-0-0-0----|
A |-x---x---x-x-x-x---x-x---x-x-x-x--|-x-x---x-x-x-x---x-x---x-x-x-x----|
E |-x---x---x-x-x-x---x-x---x-x-x-x--|-x-x---x-x-x-x---x-x---x-x-x-x----|

    A             Asus2           A                Asus2

E |-x---x---x-x-x-x---x-x---x-x-x-x--|-x-x---x-x-x-x---x-x---x-x-x-x----|
B |-x---x---x-x-x-x---x-x---x-x-x-x--|-x-x---x-x-x-x---x-x---x-x-x-x----|
G |-6---6---6-6-6-x---x-x---x-x-x-6--|-6-6---6-6-6-x---x-x---x-x-x-x----|
D |-7---7---7-7-7-9---9-9---9-9-9-7--|-7-7---7-7-7-9---9-9---9-9-9-9----|
A |-0---0---0-0-0-0---0-0---0-0-0-0--|-0-0---0-0-0-0---0-0---0-0-0-0----|
E |-x---x---x-x-x-x---x-x---x-x-x-x--|-x-x---x-x-x-x---x-x---x-x-x-x----|
  
    Dmaj7         D6              Dmaj7            D6

E |-x---x---x-x-x-x---x-x---x-x-x-x--|-x-x---x-x-x-x---x-x---x-x-x-x----|
B |-2---2---2-2-2-x---x-x---x-x-x-2--|-2-2---2-2-2-x---x-x---x-x-x-x----|
G |-2---2---2-2-2-4---4-4---4-4-4-2--|-2-2---2-2-2-4---4-4---4-4-4-4----|
D |-0---0---0-0-0-0---0-0---0-0-0-0--|-0-0---0-0-0-0---0-0---0-0-0-0----|
A |-x---x---x-x-x-x---x-x---x-x-x-x--|-x-x---x-x-x-x---x-x---x-x-x-x----|
E |-x---x---x-x-x-x---x-x---x-x-x-x--|-x-x---x-x-x-x---x-x---x-x-x-x----|

  (w/distortion)
    F#min           D                  A               E

E |----------------------------------|----------------------------------|
B |----------------------------------|----------------------------------|
G |-6---6-6-6-6-6-6-7---7-7-7-7-7-7--|----------------------------------|
D |-x---x-x-x-x-x-x-7---7-7-7-7-7-7--|-7---7-7-7-7-7-7-2---2-2-2-2-2-2--|
A |-4---4-4-4-4-4-4-5---5-5-5-5-5-5--|-7---7-7-7-7-7-7-2---2-2-2-2-2-2--|
E |----------------------------------|-5---5-5-5-5-5-5-0---0-0-0-0-0-0--|

    F#min           D                  A               E   

E |----------------------------------|----------------------------------|
B |----------------------------------|----------------------------------|
G |-6---6-6-6-6-6-6-7---7-7-7-7-7-7--|----------------------------------|
D |-x---x-x-x-x-x-x-7---7-7-7-7-7-7--|-7---7-7-7-7-7-7-2---2-2-2-2-2-2--|
A |-4---4-4-4-4-4-4-5---5-5-5-5-5-5--|-7---7-7-7-7-7-7-2---2-2-2-2-2-2--|
E |----------------------------------|-5---5-5-5-5-5-5-0---0-0-0-0-0-0--|

    F#min           D                  A               E   

E |----------------------------------|----------------------------------|
B |----------------------------------|----------------------------------|
G |-6---6-6-6-6-6-6-7---7-7-7-7-7-7--|----------------------------------|
D |-x---x-x-x-x-x-x-7---7-7-7-7-7-7--|-7---7-7-7-7-7-7-2---2-2-2-2-2-2--|
A |-4---4-4-4-4-4-4-5---5-5-5-5-5-5--|-7---7-7-7-7-7-7-2---2-2-2-2-2-2--|
E |----------------------------------|-5---5-5-5-5-5-5-0---0-0-0-0-0-0--|

    F#min           D                  A               E

E |----------------------------------|----------------------------------|
B |----------------------------------|----------------------------------|
G |-6---6-6-6-6-6-6-7---7-7-7-7-7-7--|----------------------------------|
D |-x---x-x-x-x-x-x-7---7-7-7-7-7-7--|-7---7-7-7-7-7-7-2-----(2)--------|
A |-4---4-4-4-4-4-4-5---5-5-5-5-5-5--|-7---7-7-7-7-7-7-2-----(2)--------|
E |----------------------------------|-5---5-5-5-5-5-5-0-----(0)--------|

    (E)

E |----------------------------------|----------------------------------|
B |----------------------------------|----------------------------------|
G |----------------------------------|----------------------------------|
D |-(2)------------(2)---------------|-(2)------------------------------|
A |-(2)------------(2)---------------|-(2)------------------------------|

Olly Wharton

born2mesmerise@hotmail.com
Comments