Blink 182 - Going Away To College Live Chords & Tabs

 

Going Away To College Live Chords & Tabs

Blink 182 Chords & Tabs

Version: 2 Type: Tab 0 ratings
1 star 2 stars 3 stars 4 stars 5 stars
comments

Going Away To College Live Tab

   
Blink 182
going away to college
tabbed by: headless_duck77

~= let ring out
x=mute that string

Intro:
e:------------------------
B:------------------------
G:-8-8-8-8-6-6-6-6-6-6-6-6
D:-9-9-9-9-9-9-9-9-9-9-9-9 x8
A:------------------------
E:------------------------

2nd half of intro twice: 
e:---------------------------------------------------
B:---------------------------------------------------
G:-----------8-----------8------------8--------------
D:-----9-----------9------------9------------12----12 x2
A:-------------------------7-7----7-7----9-9----9-9--
E:-7-7---7-7---7-7---7-7-----------------------------

play this 2nd time around:
e:---
B:---
G:---
D:-9~
A:-9~
E:-7~

pre chorus:
e:----------------------------
B:----------------------------
G:---------9-9-9-9-11-11-11-11
D:-9-9-9-9-9-9-9-9-11-11-11-11 x2
A:-9-9-9-9-7-7-7-7-9--9--9--9-
E:-7-7-7-7--------------------


2nd half of intro twice: 
e:---------------------------------------------------
B:---------------------------------------------------
G:-----------8-----------8------------8--------------
D:-----9-----------9------------9------------12----12 x2
A:-------------------------7-7----7-7----9-9----9-9--
E:-7-7---7-7---7-7---7-7-----------------------------

play this 2nd time around:
e:---
B:---
G:---
D:-9~
A:-9~
E:-7~

pre chorus:
e:----------------------------
B:----------------------------
G:---------9-9-9-9-11-11-11-11
D:-9-9-9-9-9-9-9-9-11-11-11-11 x2
A:-9-9-9-9-7-7-7-7-9--9--9--9-
E:-7-7-7-7--------------------

Chorus:
e:--------------------------------
B:--------------------------------
G:-8-8-8-8-9-9-9-9----------------
D:-x-x-x-x-x-x-x-x-9-9-9-9-4-4-4-4 x3
A:-6-6-6-6-7-7-7-7-9-9-9-9-4-4-4-4
E:-----------------7-7-7-7-2-2-2-2
[ Tab from: http://www.guitartabs.cc/tabs/b/blink_182/going_away_to_college_live_tab_ver_2.html ]
Then:
e:---------------------------
B:---------------------------
G:-8-8-8-8-9-9-9-9-----------
D:-8-8-8-8-9-9-9-9-9-9-9-9-4~
A:-6-6-6-6-7-7-7-7-9-9-9-9-4~ x1
E:-----------------7-7-7-7-2~


2nd half of intro twice: 
e:---------------------------------------------------
B:---------------------------------------------------
G:-----------8-----------8------------8--------------
D:-----9-----------9------------9------------12----12 x2
A:-------------------------7-7----7-7----9-9----9-9--
E:-7-7---7-7---7-7---7-7-----------------------------

Verse:
e:-------------------------------------------------
B:-------------------------------------------------
G:-----8-----8-----8-----8-----8-----8-----9-----8-
D:------------------------------------------------- x2
A:-------------------------------------------------
E:-7-7---7-7---7-7---7-7---7-7---7-7---7-7---7-7---
NOTE!:All notes played on the low E string are muted

pre chorus:
e:----------------------------
B:----------------------------
G:---------9-9-9-9-11-11-11-11
D:-9-9-9-9-9-9-9-9-11-11-11-11 x2
A:-9-9-9-9-7-7-7-7-9--9--9--9-
E:-7-7-7-7--------------------

Chorus:
e:--------------------------------
B:--------------------------------
G:-8-8-8-8-9-9-9-9----------------
D:-x-x-x-x-x-x-x-x-9-9-9-9-4-4-4-4 x3
A:-6-6-6-6-7-7-7-7-9-9-9-9-4-4-4-4
E:-----------------7-7-7-7-2-2-2-2

Then:
e:---------------------------
B:---------------------------
G:-8-8-8-8-9-9-9-9-----------
D:-8-8-8-8-9-9-9-9-9-9-9-9-4~
A:-6-6-6-6-7-7-7-7-9-9-9-9-4~ x1
E:-----------------7-7-7-7-2~

interlude:
e:------------------------
B:------------------------
G:-8-8-8-8-6-6-6-6-6-6-6-6
D:-9-9-9-9-9-9-9-9-9-9-9-9 x8
A:------------------------
E:------------------------

Chorus (slightly altered):
e:--------------------------------
B:--------------------------------
G:-8-8-8-8-9-9-9-9----------------
D:-8-8-8-8-9-9-9-9-9-9-9-9-4-4-4-4 x3
A:-6-6-6-6-7-7-7-7-9-9-9-9-4-4-4-4 
E:-----------------7-7-7-7-2-2-2-2

Then:
e:---------------------------
B:---------------------------
G:-8-8-8-8-9-9-9-9-----------
D:-8-8-8-8-9-9-9-9-9-9-9-9-4~
A:-6-6-6-6-7-7-7-7-9-9-9-9-4~ x1
E:-----------------7-7-7-7-2~
Comments