Blink 182 - Go Chords & Tabs

 

Go Chords & Tabs

Blink 182 Chords & Tabs

Version: 9 Type: Tab 0 ratings
1 star 2 stars 3 stars 4 stars 5 stars
comments

Go Tab

Tabbed by Colin Baillio                                       
                                       Go
                                   by Blink 182

This is 100% correct!!!!

x=Mute
1----------------------------------------------------------
2----------------------------------------------------------
3---9--9--9--9--9--9--9--9---------------------------------
4--10-10-10-10-10-10-10-10-----3-3-3-3-3-3-3-3-------------
5---7--7--7--7--7--7--7--7-----3-3-3-3-3-3-3-3-------------
6---8--8--8--8--8--8--8--8-X2--1-1-1-1-1-1-1-1-X2---------- X2

Verse
1------------------------------------------------------------------------
2------------------------------------------------------------------------
3------------------------------------------------------------------------
4------------------------------------------------------------------------
5---3-3-3-3-3-3-3-3-3-3-3-3-3-3-2-5--------------------------------------
6------------------------------------1-1-1-1-1-1-1-1-1-1-1-1-1-1-1-1----- X2

Chorus
1-----------------------------------------------
2-----------------------------------------------
3-----------------------------------------------
4---7-7-7-7-7-7-7-7--3-3-3-3-3-3-3-3------------
5---7-7-7-7-7-7-7-7--3-3-3-3-3-3-3-3------------
6---5-5-5-5-5-5-5-5--1-1-1-1-1-1-1-1------------ X2
[ Tab from: http://www.guitartabs.cc/tabs/b/blink_182/go_tab_ver_9.html ]
Solo
1-----------------------------------------------
2-----------------------------------------------
3-----------------------------------------------
4-----------------------------------------------
5---3-5-7-3-3-2-3-5-3--3-5-3-3-2-3-3------------
6-----------------------------------------------

Verse 3
1------------------------------------------------
2------------------------------------------------
3------------------------------------------------
4------------------------------------------7-----
5------------------------------------------7-----
6------------------------------------------5-----

Pause
1-----------------------------------------------
2-----------------------------------------------
3-----------------------------------------------
4-----------------------------------------------
5-----------------------------------------------
6-----------------------------------------------

End 1
1------------------------------------------------------------------------
2------------------------------------------------------------------------
3---9--9--9--9--9--9--9--9----5-5-5-5--7-7-7-7--9-9-9-9-10--10--10--10---
4--10-10-10-10-10-10-10-10----x-x-x-x--x-x-x-x--x-x-x-x--x---x---x---x---
5---7--7--7--7--7--7--7--7----3-3-3-3--5-5-5-5--7-7-7-7--8---8---8---8---
6---8--8--8--8--8--8--8--8-X2-------------------------------------------- X3

End 2
1-------------------------------------------------
2-------------------------------------------------
3---9--9--9--9--9--9--9--9------------------------
4--10-10-10-10-10-10-10-10--3---------------------
5---7--7--7--7--7--7--7--7--3---------------------
6---8--8--8--8--8--8--8--8--1---------------------
Intro
Verse
Chorus
Intro 
Verse
Chorus
Solo
Verse 3
Pause
Chorus
End 1
End 2
Comments