Blink 182 - Go Chords & Tabs

 

Go Chords & Tabs

Blink 182 Chords & Tabs

Version: 7 Type: Tab 0 ratings
1 star 2 stars 3 stars 4 stars 5 stars
comments

Go Tab

Intro Guitar 1 (X2)
E-----------------------------------------------------------------
B-----------------------------------------------------------------
G-----------------------------------------------------------------
D--10------3------------------------------------------------------
A--10-X12--3-X12--------------------------------------------------
E--8-------1------------------------------------------------------

Intro Guitar 2 (X2)
E-----------------------------------------------------------------
B-----------------------------------------------------------------
G--9------5-------------------------------------------------------
D--x-X12--x-X12---------------------------------------------------
A--7------3-------------------------------------------------------
E-----------------------------------------------------------------

Verse (X2)
E-----------------------------------------------------------------
B-----------------------------------------------------------------
G-----------------------------------------------------------------
D-----------------------------------------------------------------
A-----------------------------------------------------------------
E--8888888888-7h10-111111111111-----------------------------------
[ Tab from: http://www.guitartabs.cc/tabs/b/blink_182/go_tab_ver_7.html ]
Chorus (X2)
E-----------------------------------------------------------------
B-----------------------------------------------------------------
G-----------------------------------------------------------------
D--7-----3--------------------------------------------------------
A--7-X8--3-X8-----------------------------------------------------
E--5-----1--------------------------------------------------------

Intro (X2)

Verse (X2)

Chorus (X2)

Interlude
E-----------------------------------------------------------------
B-----------------------------------------------------------------
G-----------------------------------------------------------------
D-----------------------------------------------------------------
A--3-5-7--3-2-3--3-5-3---3-5-3s2h3 ring into feedback-------------
E-----------------------------------------------------------------

Chorus (X2)

Outro (X3)
E-----------------------------------------------------------------
B-----------------------------------------------------------------
G--5-----5-7-9-10-------------------------------------------------
D--5-X12-x-x-x-x--------------------------------------------------
A--3-----3-5-7-8--------------------------------------------------
E-----------------------------------------------------------------

End With
E-----------------------------------------------------------------
B-----------------------------------------------------------------
G--5------3-------------------------------------------------------
D--5-X12--3-------------------------------------------------------
A--3------1-------------------------------------------------------
E-----------------------------------------------------------------

Thats it
Comments