Blink 182 - Go Chords & Tabs

 

Go Chords & Tabs

Blink 182 Chords & Tabs

Version: 6 Type: Tab 0 ratings
1 star 2 stars 3 stars 4 stars 5 stars
comments

Go Tab

-------------------------------------------------------------------------------
			     Go - Blink 182
-------------------------------------------------------------------------------
Tabbed by: is this name taken
Email: isthisnametaken69@hotmail.com

Tuning: EADGBE

Intro:
e|---------------------------------------------------------------------------|
B|---------------------------------------------------------------------------|
G|----9----------------------------------------------------------------------|
D|----x---X16--------3-------------------------------------------------------|
A|----7--------------3-X16---------------------------------------------------|
E|----8--------------1-------------------------------------------------------|

Verse:
e|---------------------------------------------------------------------------|
B|---------------------------------------------------------------------------|
G|----5------------2--2------7--7--------------------------------------------|
D|----x----X12-----x--x------x--x--------3-----------------------------------|
A|----3------------4--4------5--5--------x---X16-----------------------------|
E|---------------------------------------1-----------------------------------|
[ Tab from: http://www.guitartabs.cc/tabs/b/blink_182/go_tab_ver_6.html ]
chorus:
e|---------------------------------------------------------------------------|
B|---------------------------------------------------------------------------|
G|---------------------------------------------------------------------------|
D|----7--------------3-------------------------------------------------------|
A|----7---X8---------3----X8-------------------------------------------------|
E|----5--------------1-------------------------------------------------------|

Bridge:
e|---------------------------------------------------------------------------|
B|---------------------------------------------------------------------------|
G|--5----7---9---5---5---4---5---7---5---------5---7---5---5---4---5---5-----|
D---x----x---x---x---x---x---x---x---x---------x---x---x---x---x---x---x-----|
A|--3----5---7---3---3---2---3---5---3---------3---5---3---3---2---3---3-----|
E|---------------------------------------------------------------------------|

outro:
e|---------------------------------------------------------------------------|
B|---------------------------------------------------------------------------|
G|-9--------7--7--5--5--5--5--7--7--7--7--9--9--9--9--10-10-10-10------------|
D|-x--X14---x--x--x--x--x--x--x--x--x--x--x--x--x--x--x--x--x--x-------------|
A|-7--------5--5--3--3--3--3--5--5--5--5--7--7--7--7--8--8--8--8-------------|
E|---------------------------------------------------------------------------|

song order:
intro
verse
chorus
intro
verse
chorus
bridge
chorus
outro

===============================================================================
Comments