Blink 182 - Go Chords & Tabs

 

Go Chords & Tabs

Blink 182 Chords & Tabs

Version: 4 Type: Tab 0 ratings
1 star 2 stars 3 stars 4 stars 5 stars
comments

Go Tab

This is an awesome song off the new album.  You can find an mp3 for it at 
www.first182.com
Here goes

INTRO
|----------------------------------------------------------------------|
|----------------------------------------------------------------------|
|-9-9-9-9-9-9-9-9-9-9-9-9-9-9-9-9--------------------------------------|
|-x-x-x-x-x-x-x-x-x-x-x-x-x-x-x-x---3-3-3-3-3-3-3-3-3-3-3-3-3-3-3-3----|
|-7-7-7-7-7-7-7-7-7-7-7-7-7-7-7-7---3-3-3-3-3-3-3-3-3-3-3-3-3-3-3-3----|
|-----------------------------------1-1-1-1-1-1-1-1-1-1-1-1-1-1-1-1----|  X2

VERSE 1
|----------------------------------------------------------------------|
|----------------------------------------------------------------------|
|-5-5-5-5-5-5-5-5-5-5-5-5-4-4-7-7--------------------------------------|
|-5-5-5-5-5-5-5-5-5-5-5-5-5-5-5-5----3-3-3-3-3-3-3-3-3-3-3-3-3-3-3-3---|
|-3-3-3-3-3-3-3-3-3-3-3-3-3-3-3-3----3-3-3-3-3-3-3-3-3-3-3-3-3-3-3-3---|
|------------------------------------1-1-1-1-1-1-1-1-1-1-1-1-1-1-1-1---|  X2

CHORUS
|-----------------------------------|
|-----------------------------------|
|-----------------------------------|
|-7-7-7-7-7-7-7-7--3-3-3-3-3-3-3-3--|
|-7-7-7-7-7-7-7-7--3-3-3-3-3-3-3-3--|
|-5-5-5-5-5-5-5-5--1-1-1-1-1-1-1-1--|  x2

INTRO
|----------------------------------------------------------------------|
|----------------------------------------------------------------------|
|-9-9-9-9-9-9-9-9-9-9-9-9-9-9-9-9--------------------------------------|
|-x-x-x-x-x-x-x-x-x-x-x-x-x-x-x-x---3-3-3-3-3-3-3-3-3-3-3-3-3-3-3-3----|
|-7-7-7-7-7-7-7-7-7-7-7-7-7-7-7-7---3-3-3-3-3-3-3-3-3-3-3-3-3-3-3-3----|
|-----------------------------------1-1-1-1-1-1-1-1-1-1-1-1-1-1-1-1----|  X2

VERSE 2
|----------------------------------------------------------------------|
|----------------------------------------------------------------------|
|-5-5-5-5-5-5-5-5-5-5-5-5-4-4-7-7--------------------------------------|
|-5-5-5-5-5-5-5-5-5-5-5-5-5-5-5-5----3-3-3-3-3-3-3-3-3-3-3-3-3-3-3-3---|
|-3-3-3-3-3-3-3-3-3-3-3-3-3-3-3-3----3-3-3-3-3-3-3-3-3-3-3-3-3-3-3-3---|
|------------------------------------1-1-1-1-1-1-1-1-1-1-1-1-1-1-1-1---|  X2

CHORUS
|-----------------------------------|
|-----------------------------------|
|-----------------------------------|
|-7-7-7-7-7-7-7-7--3-3-3-3-3-3-3-3--|
|-7-7-7-7-7-7-7-7--3-3-3-3-3-3-3-3--|
|-5-5-5-5-5-5-5-5--1-1-1-1-1-1-1-1--|  x2
[ Tab from: http://www.guitartabs.cc/tabs/b/blink_182/go_tab_ver_4.html ]
SOLO
|---------------------------------------|
|---------------------------------------|
|---------------------------------------|
|--------2------------------------------|
|-3-3-5-----3-3-2-3-3-5-3--3-5-3-3-2-3--|
|---------------------------------------|

VERSE 3(NO GUITAR)

INTERLUDE
|----|
|----|
|----|
|-7--|
|-7--|
|-5--|

CHORUS
|-----------------------------------|
|-----------------------------------|
|-----------------------------------|
|-7-7-7-7-7-7-7-7--3-3-3-3-3-3-3-3--|
|-7-7-7-7-7-7-7-7--3-3-3-3-3-3-3-3--|
|-5-5-5-5-5-5-5-5--1-1-1-1-1-1-1-1--|  x2

ENDING
|----------------------------------------------------------------------|
|----------------------------------------------------------------------|
|-9-9-9-9-9-9-9-9-9-9-9-9-9-9-9-9--5-5-5-5--7-7-7-7--9-9-9-9-10101010--|
|-x-x-x-x-x-x-x-x-x-x-x-x-x-x-x-x--x-x-x-x--x-x-x-x--x-x-x-x--x-x-x-x--|
|-7-7-7-7-7-7-7-7-7-7-7-7-7-7-7-7--3-3-3-3--5-5-5-5--7-7-7-7--8-8-8-8--|
|----------------------------------------------------------------------|  X3

|------------------------------------------------|
|------------------------------------------------|
|--9-9-9-9-9-9-9-9-9-9-9-9-9-9-9-9--5------------|
|--x-x-x-x-x-x-x-x-x-x-x-x-x-x-x-x--x-let ring---|
|--7-7-7-7-7-7-7-7-7-7-7-7-7-7-7-7-3------------|
|------------------------------------------------|

email voicez84@hotmail.com with improvements/comments
Lyrics:
-Intro-

-Verse 1-
Are we all victims of opportunity,
Locked outside the door back in '83,
I heard the angry voice from the man inside,
And saw the look of fear in my mother's eyes.

-Chorus-
Go! Go! Go! Go! Go! Go! Go! Go! I dont wanna know, I dont wanna know.

-Intro-

-Verse 2-
Mom get in the car, and let's drive away,
She said I'm sorry Mark, but theres nowhere to stay, 
Gave my father a hug, then went back inside, 
With her broken heart, and then the engine died.

-Chorus-
Go! Go! Go! Go! Go! Go! Go! Go! I dont wanna know, I dont wanna know.

-Solo-

-Verse 3-
Why do evil men get away with it,
Can't you see that I'm in a world of shit,
Give up all your hope and go back inside,
And stop my bleeding heart and then the engine died.

Interlude
I dont wanna know, I dont wanna know, I dont wanna know, I dont wanna know

-Chorus-
Go! Go! Go! Go! Go! Go! Go! Go! I dont wanna know, I dont wanna know.

-Ending-

email voicez84@hotmail.com with improvements/comments
cheers
max
Comments