Blink 182 - Go Chords & Tabs

 

Go Chords & Tabs

Blink 182 Chords & Tabs

Version: 5 Type: Bass Tab 0 ratings
1 star 2 stars 3 stars 4 stars 5 stars
comments

Go Bass Tab

from Blink 182
Go
Words and Music by Travis Barker, Tom De Longe and Mark Hoppus
Fast Rock = 182bpm


Intro

|-----------------|-----------------|-----------------|-----------------|
|-----------------|-----------------|-----------------|-----------------|
|-3-3-3-3-3-3-3-3-|-3-3-3-3-3-3-3-0-|-----------------|-----------------|
|-----------------|-----------------|-1-1-1-1-1-1-1-1-|-1-1-1-1-1-1-1-1-|

|-----------------|-----------------|-----------------|-----------------|
|-----------------|-----------------|-----------------|-----------------|
|-3-3-3-3-3-3-3-3-|-3-3-3-3-3-3-3-0-|-----------------|-----------------|
|-----------------|-----------------|-1-1-1-1-1-1-1-1-|-1-1-1-1-1-1-1-1-|

Verse

|-----------------|-----------------|-----------------|-----------------|
|-----------------|-----------------|-----------------|-----------------|
|-3-3-3-3-3-3-3-3-|-3-3-3-3-2-2-5-5-|-----------------|-----------------|
|-----------------|-----------------|---1-1-1-1-1-1-1-|-1-1-1-1-1-1-1-1-|

|-----------------|-----------------|-----------------|-----------------|
|-----------------|-----------------|-----------------|-----------------|
|-3-3-3-3-3-3-3-3-|-3-3-3-3-2-2-5-5-|-----------------|-----------------|
|-----------------|-----------------|---1-1-1-1-1-1-1-|-1-1-1-1-1-1-0-0-|

Chorus

|-----------------|-----------------|-----------------|-----------------|
|-----------------|-----------------|-----------------|-----------------|
|-0-0-0-0-0-0-0-0-|-----------------|-0-0-0-0-0-0-0-0-|-----------------|
|-----------------|-1-1-1-1-1-1-1-0-|-----------------|-1-1-1-1-1-1-0-0-|

Interlude

|-----------------|-----------------|-----------------|-----------------|
|-5---------------|-----------------|-----------------|-----------------|
|-3---3-3-3-3-3-3-|-3-3-3-3-3-3-3-0-|-----------------|---------3-3-3-3-|
|-----------------|-----------------|-1-1-1-1-1-1-1-1-|-1-1-1-1-1-1-1-1-|

|-----------------|-----------------|-----------------|-----------------|
|-----------------|-----------------|-----------------|-----------------|
|-3-3-3-3-3-3-3-3-|-3-3-3-3-3-3-3-0-|-----------------|-----------------|
|-----------------|-----------------|-1-1-1-1-1-1-1-1-|-1-1-1-1-1-1-1-0-|
[ Tab from: http://www.guitartabs.cc/tabs/b/blink_182/go_btab_ver_5.html ]
|-----------------|-----------------|-----------------|-----------------|
|-----------------|-----------------|-----------------|-----------------|
|-3-3-3-3-3-3-3-3-|-3-3-3-3-3-3-3-0-|-----------------|-----------------|
|-----------------|-----------------|-1-1-1-1-1-1-1-1-|-1-1-1-1-1-1-1-0-|

|-----------------|-----------------|-----------------|-----------------|
|-----------------|-----------------|-----------------|-----------------|
|-3-3-3-3-3-3-3-3-|-3-3-3-3-3-3-3-0-|-----------------|-----------------|
|-----------------|-----------------|-1-1-1-1-1-1-1-1-|-1-1-1-1-1-1-1-0-|

Chorus 2

|-----------------|-----------------|-----------------|-----------------|
|-2---------------|-----------------|-----------------|-----------------|
|-0---------------|-----------------|-----------------|-----------------|
|-----------------|-----------------|-----------------|-----------------|

|-----------------|-----------------|-----------------|-----------------|
|-----------------|-----------------|-----------------|-----------------|
|-0-0-0-0-0-0-0-0-|-----------------|-0-0-0-0-0-0-0-0-|-----------------|
|-----------------|-1-1-1-1-1-1-1-0-|-----------------|-1-1-1-1-1-1-0-0-|

Outro

|-----------------|-----------------|-----------------|-----------------|
|-----------------|-----------------|-----------------|-----------------|
|-7-7-7-7-7-7-7-7-|-7-7-7-7-7-7-0---|-3-3-3-3-5-5-5-5-|-7-7-7-7-8-8-8-7-|
|-----------------|-----------------|-----------------|-----------------|

|-----------------|-----------------|-----------------|-----------------|
|-----------------|-----------------|-----------------|-----------------|
|-7-7-7-7-7-7-7-7-|-7-7-7-7-7-7-0---|-3-3-3-3-5-5-5-5-|-7-7-7-7-8-8-8-7-|
|-----------------|-----------------|-----------------|-----------------|

|-----------------|-----------------|-----------------|-----------------|
|-----------------|-----------------|-----------------|-----------------|
|-7-7-7-7-7-7-7-7-|-7-7-7-7-7-7-0---|-3-3-3-3-5-5-5-5-|-7-7-7-7-8-8-8-7-|
|-----------------|-----------------|-----------------|-----------------|

|-----------------|------------------|-----------------|
|-----------------|------------------|-----------------|
|-7-7-7-7-7-7-7-7-|-7--7--7--7--7--0-|-3---------------|
|-----------------|-^-----^--^-----^-|-1---------------|
                    |__3__|  |__3__|                            

Intro
Verse
Chorus
Intro
Verse
Chorus
Interlude
Chorus 2
Outro
Comments