Blink 182 - Give Me One Good Reason Chords & Tabs

 

Give Me One Good Reason Chords & Tabs

Blink 182 Chords & Tabs

Version: 5 Type: Tab 0 ratings
1 star 2 stars 3 stars 4 stars 5 stars
comments

Give Me One Good Reason Tab

   
Give Me One Good Reason-Blink 182
take off your pants and jacket
gtr 1. drop d tuning w/ capo on 2nd fret
gtr 2. standard tuning w/ capo on 2nd fret
gtr 3. standard tuning

intro: (clean) gtr 2.

e-----------------------------------------
b-----------------------------------------
g-----------------------------------------
d-----4-----4-0---------0-----0----------- x2
a---5-----5-----------7-----7-----7-------
e-5-----5-----------5-----5-----5---------

e-----------------------------------------
b-----------------------------------------
g-----------------------------------------
d-----0-----0------------0-----0---------- 
a---9-----9------9-----5-----5-----5------ 
e-7-----7------7-----3-----3-----3--------

e-----------------------------------------
b-----------------------------------------
g-----------------------------------------
d-----0-----0------------0-----0---0------
a---9-----9------9-----7-----7------------
e-7-----7------7-----5-----5-----5--------

gtr 1. natural harmonics
e-----------------------------------------
b-----------------------------------------
g-----------------------------------------
d-----------------------------------------
a-----------------------------7-7-7-7-----
d-----------------------------------------
Verses:

e-----------------------------------------
b-----------------------------------------
g-----------------------------------------
d-0--0--0--0--0---------7--7--7--7--7----- x2
a-0--0--0--0--0---------7--7--7--7--7-----
d-0--0--0--0--0---------7--7--7--7--7-----

e-----------------------------------------
b-----------------------------------------
g-----------------------------------------
d-9--9--9--9--9---------5--5--5--5--5-----
a-9--9--9--9--9---------5--5--5--5--5-----
d-9--9--9--9--9---------5--5--5--5--5-----

e-----------------------------------------
b-----------------------------------------
g-----------------------------------------
d-9--9--9--9--9---------7--7--7--7--7-----
a-9--9--9--9--9---------7--7--7--7--7-----
d-9--9--9--9--9---------7--7--7--7--7-----

Interlude:

e-----------------------------------------
b-3-3-3-3-3-------------------------------
g-2-2-2-2-2-------------------------------
d-0-0-0-0-0---4--------------------------- x2
a-0-0-0-0-0-------0-0-0-4h5-5-------------
d-0-0-0-0-0-------------------------------
                pm* * *




Chorus:
[ Tab from: http://www.guitartabs.cc/tabs/b/blink_182/give_me_one_good_reason_tab_ver_5.html ]
e-----------------------------------------
b-----------------------------------------
g-7-7-7-7-7-7-7-7-------------------------
d-7-7-7-7-7-7-7-7-------------------------
a-5-5-5-5-5-5-5-5-5-5-5-5-5-5-5-5---------
d-0-0-0-0-0-0-0-0-4-4-4-4-4-4-4-4/7-------

e-----------------------------------------
b-----------------------------------------
g-----------------------------------------
d-7-7-7-7-7-7-7-7-7-7-7-7-7-7-7-7---------
a-7-7-7-7-7-7-7-7-7-7-7-7-7-7-7-7---------
d-7-7-7-7-7-7-7-7-7-7-7-7-7-7-7-7---------

e-----------------------------------------
b-----------------------------------------
g-7-7-7-7-7-7-7-7-------------------------
d-7-7-7-7-7-7-7-7-------------------------
a-5-5-5-5-5-5-5-5-5-5-5-5-5-5-5-5---------
d-0-0-0-0-0-0-0-0-4-4-4-4-4-4-4-4/7-------

e-----------------------------------------
b-----------------------------------------
g-----------------------------------------
d-7-7-7-7-7-7-7-0-5-5-5-5-5-5-5-0---------
a-7-7-7-7-7-7-7-0-5-5-5-5-5-5-5-0---------
d-7-7-7-7-7-7-7-0-5-5-5-5-5-5-5-0---------



solo rhythm:
B5       G5       B5        A5


solo:
e-----------------------------------------
b-----------------------------------------
g-9-9-9111111-13-13-13-14-14-14-13--9-9---
d-----------------------------------------
a-7-7-7-9-9-9-11-11-11-12-12-12-11--7-7---
e-----------------------------------------

e-----------------------------------------
b-----------------------------------------
g-9-9---4-4-4-4-4-4-9-9-9-4-4-4-4-4-------
d-----------------------------------------
a-7-7---2-2-2-2-2-2-7-7-7-2-2-2-2-2-------
e-----0-----------------------------------

e-----------------------------------------
b-----------------------------------------
g-9-9-9111111-13-13-13-14-14-14-13--9-9---
d-----------------------------------------
a-7-7-7-9-9-9-11-11-11-12-12-12-11--7-7---
e-----------------------------------------

first ending:
e-----------------------------------------
b-----------------------------------------
g1111111111--1311-9-9-911111111--1311-9---
d-----------------------------------------
a-9-9-9-9-9--11-9-7-7-7-9-9-9-9--11-9-7---
e-----------------------------------------

e-----------------------------------------
b-----------------------------------------
g1111111111--1311-9-9-911111111-13-9-8-9--
d-----------------------------------------
a-9-9-9-9-9--11-9-7-7-7-9-9-9-9-11-7-6-7--
e-----------------------------------------

these are all the parts of the songs


trevor jones
timmy91199@yahoo.ca
Comments