Blink 182 - Give Me One Good Reason Chords & Tabs

 

Give Me One Good Reason Chords & Tabs

Blink 182 Chords & Tabs

Version: 1 Type: Tab 0 ratings
1 star 2 stars 3 stars 4 stars 5 stars
comments

Give Me One Good Reason Tab

   
Band: Blink 182 
Song: Give me one good reason 
Tabbed by: Doug Berman 
Email: SUM1helpME@aol.com 

I guess you know by know that every time I tab songs… I say,  
"there are some weird looking power chords but they are right" 
(there is one in the chorus of this song) I guess you could  
play them regular… but then the melody of what is being played  
and what is being sung sounds HORRIBLE!! Just play everything  
the way I right it..  
  
INTRO 1 
e)-------------------------------- 
B)-------------------------------- 
G)-----1-----1--------------------  x2 
D)---2-----2---2----4-2---4-2---2- 
A)-2-----2--------2-----2-----2--- 
E)-------------------------------- 

INTRO 2 
e)-|---------------------------------|  |---------2222-| 
B)-|---------------------------------|  |--------------| 
G)-|---1-----1---------1----1--------|  |--------------| 
D)-|-----2-----2---2-----2-----2---2-|x2|---4-2--------| x1 
A)-|-4-----4-----4---0-----0-----0---|  |-2-----2------| 
E)-|---------------------------------|  |--------------| 

VERSE 
e) 
B)------------------------------------------------- 
G)-------44444-------44444-66666-22222-66666-44444- 
D)-22222-44444-22222-44444-66666-22222-66666-44444- 
A)-22222-22222-22222-22222-44444-00000-44444-22222- 
E)-00000-------00000------------------------------- 
   PM>>>>>>>>>>>>>>>>>>>>>>>>>>>>>>>>>>>>>>>>>>>>> 
[ Tab from: http://www.guitartabs.cc/tabs/b/blink_182/give_me_one_good_reason_tab.html ]
RIFF 1 
e)------------------------------------- 
B)------------------------------------- 
G)-------1-----------------1----------- 
D)-22222---222-1-2-2-22222---222-1-2-2- 
A)-22222---222-------22222---222------- 
E)-00000---000-------00000---000------- 
   PM>>>   PM>       PM>>>   PM> 

(play VERSE) 
(play RIFF 1) 

CHORUS 
e)---------------------------------------- 
B)---------------------------------------- 
G)---------------------------------------- x2 
D)-2222-7777-99999999-2222-7777-9999-7777- 
A)-2222-7777-99999999-2222-7777-9999-7777- 
e)-0000-4444-77777777-0000-4444-7777-5555- 


(play INTRO 1) 
(play INTRO 2) 
(play VERSE) 
(play RIFF 1 twice) 
(play CHORUS) 

SOLO PT. 1 
e)------------------------------------------------------------- 
B)------------------------------------------------------------- 
G)---------------------------------------------99999-----99999- 
D)---------------------------------------------99999-----99999- 
A)-7-7-7-9-9-9-11-11-11-12-12-12-11-11-7-7-777-77777-777-77777- 
E)------------------------------------------------------------- 

SOLO PT. 2 
e)-------------------------------------------------------------- 
B)-------------------------------------------------------------- 
G)-------------------------------------------------------------- 
D)-------------------------------------------------------------- 
A)-7-7-7-9-9-9-11-11-11-12-12-12-11-11-7-7-99999h11-7-9999h11-6- 
E)-------------------------------------------------------------- 

(play SOLO PT. 1) 
(play SOLO PT. 2) 

then, let this note ring 
e)---- 
B)---- 
G)---- 
D)---- 
A)-7~- 
E)---- 

(play CHORUS) 

End on this.. 
e)--- 
B)--- 
G)--- 
D)-2- 
A)-2- 
e)-0- 

Comments