Blink 182 - Give Me One Good Reason Chords & Tabs

 

Give Me One Good Reason Chords & Tabs

Blink 182 Chords & Tabs

Version: 1 Type: Bass Tab 0 ratings
1 star 2 stars 3 stars 4 stars 5 stars
comments

Give Me One Good Reason Bass Tab

Give Me One Good Reason
blink -182-
Tabbed by: Blake Rakoczi
E-Mail: effromtheretardedrabbit@hotmail.com

~ = Let Ring

Intro - Note: This might not be played.
G|------------------------------------------------------------------
D|------------------------------------------------------------------
A|-------2~~~~-------2~~~~~-4~~~~-0~~~~-4~~~~-2~~~~--2222----------- x1
E|-0~~~~-------0~~~~------------------------------------------------

First Verse
G|------------------------------------------------------------------
D|------------------------------------------------------------------
A|-------22222-------22222-44444-00000-44444-22222------------------ x1
E|-00000-------00000------------------------------------------------

Pre-Chorus - Note: Timing is kind of tricky. Play only on the chords 
                   that aren't palm muted.  Don't play on the singluar
                   notes either.
G|------------------------------------------------------------------
D|------------------------------------------------------------------
A|----------2222---------------------------------------------------- x2
E|-00000------------------------------------------------------------

Second Verse
G|------------------------------------------------------------------
D|------------------------------------------------------------------
A|-------22222-------22222-44444-00000-44444-22222------------------ x1
E|-00000-------00000------------------------------------------------

Pre-Chorus - Note: Timing is kind of tricky. Play only on the chords 
                   that aren't palm muted.  Don't play on the singluar
                   notes either.
G|------------------------------------------------------------------
D|------------------------------------------------------------------
A|----------2222---------------------------------------------------- x2
E|-00000------------------------------------------------------------

Chorus
G|------------------------------------------------------------------
D|------------------------------------------------------------------
A|-------------------2222222222222222------------------------------- x1
E|-00000000-44444444------------------------------------------------

G|------------------------------------------------------------------
D|------------------------------------------------------------------
A|-------------------22222222-00000000------------------------------ x1
E|-00000000-44444444------------------------------------------------

G|------------------------------------------------------------------
D|------------------------------------------------------------------
A|-------------------2222222222222222------------------------------- x1
E|-00000000-44444444------------------------------------------------

G|------------------------------------------------------------------
D|------------------------------------------------------------------
A|-------------------22222222-00000000------------------------------ x1
E|-00000000-44444444------------------------------------------------


Intro - Note: This might not be played.
G|------------------------------------------------------------------
D|------------------------------------------------------------------
A|-------2~~~~-------2~~~~~-4~~~~-0~~~~-4~~~~-2~~~~--2222----------- x1
E|-0~~~~-------0~~~~------------------------------------------------

Third Verse
G|------------------------------------------------------------------
D|------------------------------------------------------------------
A|-------22222-------22222-44444-00000-44444-22222------------------ x1
E|-00000-------00000------------------------------------------------
[ Tab from: http://www.guitartabs.cc/tabs/b/blink_182/give_me_one_good_reason_btab.html ]
Pre-Chorus - Note: Timing is kind of tricky. Play only on the chords 
                   that aren't palm muted.  Don't play on the singluar
                   notes either.
G|------------------------------------------------------------------
D|------------------------------------------------------------------
A|----------2222---------------------------------------------------- x4
E|-00000------------------------------------------------------------

Chorus
G|------------------------------------------------------------------
D|------------------------------------------------------------------
A|-------------------2222222222222222------------------------------- x1
E|-00000000-44444444------------------------------------------------

G|------------------------------------------------------------------
D|------------------------------------------------------------------
A|-------------------22222222-00000000------------------------------ x1
E|-00000000-44444444------------------------------------------------

G|------------------------------------------------------------------
D|------------------------------------------------------------------
A|-------------------2222222222222222------------------------------- x1
E|-00000000-44444444------------------------------------------------

G|------------------------------------------------------------------
D|------------------------------------------------------------------
A|-------------------22222222-00000000------------------------------ x1
E|-00000000-44444444------------------------------------------------

Bridge
G|------------------------------------------------------------------
D|------------------------------------------------------------------
A|-4444444444444444------------------------------------------------- x1
E|------------------4444444444444444--------------------------------

G|------------------------------------------------------------------
D|------------------------------------------------------------------
A|-4444444444444444-2222222222222222-------------------------------- x1
E|------------------------------------------------------------------

G|------------------------------------------------------------------
D|------------------------------------------------------------------
A|-4444444444444444------------------------------------------------- x1
E|------------------4444444444444444--------------------------------

G|------------------------------------------------------------------
D|------------------------------------------------------------------
A|-4444444444444444-22222222---------------------------------------- x1
E|---------------------------44444444-------------------------------

Chorus
G|------------------------------------------------------------------
D|------------------------------------------------------------------
A|-------------------2222222222222222------------------------------- x1
E|-00000000-44444444------------------------------------------------

G|------------------------------------------------------------------
D|------------------------------------------------------------------
A|-------------------22222222-00000000------------------------------ x1
E|-00000000-44444444------------------------------------------------

G|------------------------------------------------------------------
D|------------------------------------------------------------------
A|-------------------2222222222222222------------------------------- x1
E|-00000000-44444444------------------------------------------------

G|------------------------------------------------------------------
D|------------------------------------------------------------------
A|-------------------22222222-00000000------------------------------ x1
E|-00000000-44444444------------------------------------------------

End On
G|------------------------------------------------------------------
D|------------------------------------------------------------------
A|------------------------------------------------------------------ x1
E|-0~~~~~~~~--------------------------------------------------------
Comments