Blink 182 - Fucked Up My Life Chords & Tabs

 

Fucked Up My Life Chords & Tabs

Blink 182 Chords & Tabs

Version: 1 Type: Bass Tab 0 ratings
1 star 2 stars 3 stars 4 stars 5 stars
comments

Fucked Up My Life Bass Tab

this sounds right to me and it sounds a lot better when im playing gigs and
stuff, you dont need 2 re-tune you can just play it in either of these ways!

INTRO:

G---2-0------
D-0---------- \
A------------  \
E------------   \    
                Play this 6 times until the vocals kick in
                /
G---2-0------  / 
D-2---------- / 
A------------   
E------------      Play whichever you think sounds best

(vocals - "i cant forgive....")
[ Tab from: http://www.guitartabs.cc/tabs/b/blink_182/fucked_up_my_life_btab.html ]
G-------0---
D-0-2-4-----  \
A-----------   \
E-----------   This will sound right if you play it gently
                as it replaces the other background noise
                            whatever it is!

bridge:

G-----------6-7-9-2--
D-2-6-7-9-0----------
A--------------------
E--------------------

(vocals - "im kicking...")

G---2-0------
D-0---------- \
A------------  \
E------------   \    
                play this untill the song is done!
                /
G---2-0------  / 
D-2---------- / 
A------------   
E------------      


looks like ive made this song playable for everyone! hope they sound good, they
should be oretty much spot on, ant problems email kiddo: retarded_kidd@hotmail.com
Comments