Blink 182 - First Date Chords & Tabs

 

First Date Chords & Tabs

Blink 182 Chords & Tabs

Version: 6 Type: Tab 0 ratings
1 star 2 stars 3 stars 4 stars 5 stars
comments

First Date Tab

   
  
BLINK 182- FIRST DATE 
TAKE OFF YOUR PANTS AND JACKET 
TABBED BY: TOM 
THIS IS A REALLY COOL SONG AND THIS TAB IS GUARANTEED 110% CORRECT 
E-MAIL ME WITH QUESTIONS OR COMMENTS AT: TAWADALLA@HOTMAIL.COM 
  
  
INTRO 
  
E 
-0----------------------------------------------------------------------------------------------------------- 
B-----1--------1--------3---1---------1-------3---1-------1---------3---1-------0--------------------- 
G---------0--------0--------------0--------0------------0--------0-------------0-------0--------------- 
D------------------------------------------------------------------------------------------------------------ 
A------------------------------------------------------------------------------------------------------------ 
E------------------------------------------------------------------------------------------------------------ 
  
 
BASSLINE 
In the car I just can't wait / to pick you up on our very first date........... 
------------------------------------------------------------------------------------------------------------ 
------------------------------------------------------------------------------------------------------------ 
---3-3-3-3-3-3-3-3-3-3-3-3------------------------------------------------------------------------- 
-----------------------------------------3-3-3-3-3-3-3-3-3-3-3-3-3-3-3-1-1-1-1-1-1----------- 
  
 
lets go/       don't wait  /     lets make this /  last for/  ev-er 
 
E------------------------------------------------------------------------------------------------------------ 
B------------------------------------------------------------------------------------------------------------ 
G-----5-5-5------4-4-4----------------------------------------------------------------------------------- 
D-----5-5-5------4-4-4------------7-7-7-7-7-7-7----------3-3------5-5--------------------------- 
A-----3-3-3------2-2-2------------7-7-7-7-7-7-7----------3-3------5-5--------------------------- 
E-------------------------------------5-5-5-5-5-5-5----------1-1------3-3--------------------------- 
  
PALM MUTE DURING VERSE 
  
E------------------------------------------------------------------------------------------------------------ 
B------------------------------------------------------------------------------------------------------------ 
G---5 5 5-------5 5 5-------5 5 
-----5-5-5---------------------------------------------------------- 
D---5-5-5--------5-5-5------5-5-5-----5-5-5---------------------------------------------------------- 
A---3-3-3--------3-3-3------3-3-3-----3-3-3---------------------------------------------------------- 
E------------------------------------------------------------------------------------------------------------ 
  
  
PALM MUTE RIFF NEAR END OF SONG 
 
C / Em / F/ G 
  
  
  
E------------------------------------------------------------------------------------------------------------ 
B------------------------------------------------------------------------------------------------------------ 
G---555555--5----9999---55----10--10--10--10-----------55----7777777------------------- 

D---xxxxxx--x----xxxx---xx---  x     x   x   
x------------xx----xxxxxxx--------------------- 
A---333333--3----7777---33---  8      8   8        
8------33----5555555--------------------- 
E------------------------------------------------------------------------------------------------------------ 

  
  
  
  
  
  
  
  
  


[ Tab from: http://www.guitartabs.cc/tabs/b/blink_182/first_date_tab_ver_6.html ]
Comments