Blink 182 - First Date Chords & Tabs

 

First Date Chords & Tabs

Blink 182 Chords & Tabs

Version: 4 Type: Tab 0 ratings
1 star 2 stars 3 stars 4 stars 5 stars
comments

First Date Tab

Artist: Blink 182
Album: Take of your pants and jacket
Track: First Date
Tabbed by: John Erskine
Tuning : Standard

Intro 

E-0----------------------------------------------------------------------------         X2
B---1-1-1-1-1-3-1-1-1-1-1-1-3-1-1-1-1-------3-1-1---3---0-------------
G---0-0-0-0-0-0-0-0-0-0-0-0-0-0-0-0-0-------0-0-0-------0-------------
D----------------------------------------------------------------0-------------
A--------------------------------------------------------------------------------
E-------------------------------------------------------------------------------

Verse Riff

E------------------------------------------------------------------------------         X8
B------------------------------------------------------------------------------
G----------------------5-5-5--------------5-5-5----------------------------
D----------------------------------------------------------------------------
A-----------------------------------------------------------------------------
E----------------------------------------------------------------------------
                               Palm mute throughout
 Pre-Chorus                                                                                                                                            X2
E-----------------------------------------------------------------------------------------------------------------------
B----------------------------------------------------------------------------1--1--1--1-------------------------------
G-------5-5-5---------------------5-5-5-----------------------------------2--2--2--2-----2---2-4-4--4-----------
D-------5-5-5---------------------5-5-5-----------------------------------2--2--2--2-----3---3-5-5--5-----------
A-------3-3-3---------------------2-2-2-----------------------------------2--2--2--2-----3---3-5-5--5----------
E----------------------------------------------------------------------------0--0--0--0-----1---1-3-3--3---------
[ Tab from: http://www.guitartabs.cc/tabs/b/blink_182/first_date_tab_ver_4.html ]
   Chorus                                                                                                                                            X2
E---------------------------------------------------------------------------------------------------------------------
B-----------------------------------3----3-3--3----3------1---1-1-1-1-1------------------------------------------
G-----5----5-5----5---5----------0----0-0--0----0------2---2-2-2-2-2-------2---2-4---4------4------------------
D-----5----5-5----5---5----------0----0-0--0----0------2---2-2-2-2-2-------3---3-5----5-----5-----------------
A-----3----3-3----3---3----------2----2-2--2----2------0---0-0-0-0-0-------3---3-5----5-----5----------------
E----------------------------------------------------------------------------------1---1-3----3-----3-----------------

Middle section                                                                                                                    X2                                                                                                                                       E---------------------------------------------------------------------------------------------------------------------
B--------------------------------------------------------------------------------------------------------------------
G--------------------------------------------------------------------------------------------------------------------
D-5-5-5-5-5-5-5-5-5---------------------------------------------------------------------------------------------
A-3-3-3-3-3-3-3-3-3--------------------------------------------------------------------------------------------
E--------------------------0-0-0-0-0-0-0-0------------1-1-1-1-1-1-1------------------3-3-3-3-3-3-3-3----
   Palm mute througout  
 
Solo                                                                                                                        X4
E-----------------------------------------------------------------------------------------
B-----------------------------------------------------------------------------------------
G--7-5-5-5-5-5-5-5---9-9-9-9-5-5-5---10-10-10-10-5-5-5---7-7-7-7-7-7-7----
D----------------------------------------------------------------------------------------
A--5-3-3-3-3-3-3-3---7-7-7-7-3-3-3---8---8---8---8-3-3-3---5-5-5-5-5-5-5---
E----------------------------------------------------------------------------------------
Comments