Blink 182 - First Date Chords & Tabs

 

First Date Chords & Tabs

Blink 182 Chords & Tabs

Version: 2 Type: Tab 2 ratings
1 star 2 stars 3 stars 4 stars 5 stars
comments

First Date Tab

Blink 182
First Date
Take Your Pants Off And Jacket
Tabbed By James Low whatisaturnip@yahoo.co.uk
Standard Tuning (EADGBE)

--------------------------------------------------------
--------------------------------------------------------
--9--5--7--5--7--5--7--5--4-----------------------------
--x--x--x--x--x--x--x--x--x-----------------------------
--7--3--5--3--5--3--5--3--2-----------------------------
--------------------------------------------------------

--------------------------------------------------------
--------------------------------------------------------
--5-5-5-5----5-5-5-5----5-5-5-5----5-5-5-5--------------
--------------------------------------------------------
--------------------------------------------------------
--------------------------------------------------------
[ Tab from: http://www.guitartabs.cc/tabs/b/blink_182/first_date_tab_ver_2.html ]
--------------------------------------------------------
--------------------------------------------------------
--5-------2---------------------------------------------
--5---5---2---3---5-------------------------------------
--3---2---0---3---5-------------------------------------
--------------1---3-------------------------------------

--------------------------------------------------------
--------------------------------------------------------
--------------------------------------------------------
--5-----------------------------------------------------
--3--2--3--5--------------------------------------------
-----0--1--3--------------------------------------------

--------------------------------------------------------
--------------------------------------------------------
--5---9---5---10--5---7---------------------------------
--x---x---x---x---x---x---------------------------------
--3---7---3---8---3---5---------------------------------
--------------------------------------------------------
Comments