Blink 182 - First Date Chords & Tabs

 

First Date Chords & Tabs

Blink 182 Chords & Tabs

Version: 19 Type: Tab 0 ratings
1 star 2 stars 3 stars 4 stars 5 stars
comments

First Date Tab

                |--------------------|          
                |Blink 182:First Date|
                |--------------------|
          This song is in standard tuning
            This song is 100% correct.

e-------------------------------------------
B-5-1---1----3-1---1----3-1---1--3-1---0----
G-----0---0------0---0------0--------0---0--
D-------------------------------------------
A-------------------------------------------
E-------------------------------------------

e-------------------------------------------
B-5-1---1----3-1---1----3-1---1--3-1---0----
G-----0---0------0---0------0--------0---0--
D-------------------------------------------
A-------------------------------------------
E-------------------------------------------

e-------------------------------
B-------------------------------
G-5-----------------------------
D-x-----------------------------
A-3-----------------------------
E-------------------------------

e----------------------------------------------------------
B----------------------------------------------------------
G-5-5--5---5-5-5---5-5-5---5-5-5---5-5--5---5-5-5---5-5-5--
D----------------------------------------------------------
A----------------------------------------------------------
E----------------------------------------------------------

e----------------------------------------------------------
B----------------------------------------------------------
G-5-5-5----------------------------------------------------
D----------------------------------------------------------
A----------------------------------------------------------
E----------------------------------------------------------

e--------------------------------------
B--------------------------------------
G-----------------2-2-2-2--------------
D-5-5-5---5-5-5---2-2-2-2---3-3\-5-----
A-3-3-3---2-2-2---0-0-0-0---3-3\-5--0--
E---------------------------1-1\-3--0--
[ Tab from: http://www.guitartabs.cc/tabs/b/blink_182/first_date_tab_ver_19.html ]
e-------------------------------------------------------
B-5-5-5-5-5-5---3-3-3-3-3---1-1-1-1-1-------------------
G-5-5-5-5-5-5---0-0-0-0-0---2-2-2-2-2-------------------
D-5-5-5-5-5-5---0-0-0-0-0---2-2-2-2-2---3--3-3--5-------
A-3-3-3-3-3-3---2-2-2-2-2---0-0-0-0-0---3--3-3--5--0-0--
E---------------------------------------1--1-1--3--0-0--
P.M........................................................
e----------------------------------------------------------
B----------------------------------------------------------
G----------------------------------------------------------
D-5-5-5-5-5-5-5-5------------------------------------------
A-3-3-3-3-3-3-3-3------------------------------------------
E-----------------0-0-0-0-0-0-0--1-1-1-1-1-1-1--3-3-3-3-3-3

P.M........................................................
e----------------------------------------------------------
B----------------------------------------------------------
G----------------------------------------------------------
D----------------------------------------------------------
A-----3-3-3-3-3-3-3----------------------------------------
E-3-3---------------0-0-0-0-0-0-0--1-1-1-1-1-1-1--3-3-3-3-3

e-------------------------------------------------
B-------------------------------------------------
G-5-5-5-5-5-5-5--9-9-9-9\5-5-5--10-10-10-10\5-5-5-
D-x-x-x-x-x-x-x--x-x-x-x\--x-x---x--x--x--x\--x-x-
A-3-3-3-3-3-3-3--7-7-7-7\3-3-3---8--8--8--8\3-3-3-
E-------------------------------------------------

e----------------------------------------------
B----------------------------------------------
G-7-7-7-7-7-7-7-7\5-5-5-5-5-5-5--9-9-9-9\5-5-5-
D-x-x-x-x-x-x-x-x\--x-x-x-x-x-x--x-x-x-x\--x-x-
A-5-5-5-5-5-5-5-5\3-3-3-3-3-3-3--7-7-7-7\3-3-3-
E----------------------------------------------

e-----------------------------------------------------
B-----------------------------------------------------
G-10-10-10-10\5-5-5--10-10-10-10\5-5-5--7-7-7-7-7-7-7-
D--x--x--x--x\--x-x---x--x--x--x\--x-x--x-x-x-x-x-x-x-
A--8--8--8--8\3-3-3---8--8--8--8\3-3-3--5-5-5-5-5-5-5-
E-----------------------------------------------------
Comments