Blink 182 - First Date Chords & Tabs

 

First Date Chords & Tabs

Blink 182 Chords & Tabs

Version: 18 Type: Tab 0 ratings
1 star 2 stars 3 stars 4 stars 5 stars
comments

First Date Tab

Song:First Date
Band:Blink 182
Album:Take Off Your Pants and Jacket
[ Tab from: http://www.guitartabs.cc/tabs/b/blink_182/first_date_tab_ver_18.html ]
dont play the 1 on the B string the first time, only on the second and let it ring while tom is singing.
intro
E--0---------------------------|
B---1-1--3-1-1--3-1-1--3-1-0--1|
G----0-0----0-0----0-0----0-0--|2x
D------------------------------|
A------------------------------|
E------------------------------|
verse
E-----|
B-----|
G--555|16x during second half of verse
D-----|
A-----|
E-----|
chorus
E--------------------|  |----------------------|
B--------------------|  |----------------------|
G--555-444-2222------|2x|--5555-4444-2222------|2x
D--555-444-2222-33-55|  |--5555-4444-2222-33-55|
A--333-222-0000-33-55|  |--3333-2222-0000-33-55|
E---------------11-33|  |-----------------11-33|
solo 1
E-------------------------------------|
B-------------------------------------|
D--55555555---------------------------|2x
G--55555555-22222222-33333333-55555555|
A--33333333-22222222-33333333-55555555|
E-----------00000000-11111111-33333333|
pm|___________________________________|
solo 2
E---------------------------------------|
B---------------------------------------|
G--5555555-9999955-101010101055-77777777|4x
D--5555555-9999955-101010101055-77777777|
A--3333333-7777733-8-8-8-8-8-33-55555555|
E---------------------------------------|
outro
E-------
B-------
G------5
D--3-5-5
A--3-5-3
E--1-3--
order of song:
intro
verse
chorus
intro
verse
chorus
solo 1
solo 2
chorus
intro with singing
outro

that's it. any questions,comments, or suggestions email me at zachzeller@earthlink.net c-ya l8er
Comments