Blink 182 - First Date Chords & Tabs

 

First Date Chords & Tabs

Blink 182 Chords & Tabs

Version: 17 Type: Tab 0 ratings
1 star 2 stars 3 stars 4 stars 5 stars
comments

First Date Tab

   
I'll be kind and give u the write tabs for this from the book, so dont aruge with them.The 1 and 2 at the start of the words mean that is what he sings the first time around for the 1 and the second time around for the 2.

Intro:
e----------------------------------------------------------
b--5--1----1------3--1-----1-----3--1-----1------3--1---0--
g-------0-----0---------0-----0--------0-----0--------0---0
D----------------------------------------------------------
A----------------------------------------------------------
E----------------------------------------------------------

e----------------------------------------------------------
b-5--1----1------3--1-----1-----3--1-----1------3--1---0--0
g------0-----0---------0-----0--------0-----0--------0---0-
D----------------------------------------------------------
A----------------------------------------------------------
E----------------------------------------------------------


e---------------------------------------------------------
b---------------------------------------------------------
g--5------------------------------------------------------
D--X------------------------------------------------------
A--3------------------------------------------------------
E---------------------------------------------------------
  1.In the car I just can't wait___                         to pick you up on our very first date.                 

  2.When you smile, I melt in - side___
I'm not worth-y for a min-ute of your time.

1.Is it cool if I hold your hand?      
Is it wrong if i think its lame to dance?

2.I real - ly   wish it was only me and you.
I'm jealous of ev - 'ry - bod - y   in the room.


Riff B
e----------------------------------------------------------
b----------------------------------------------------------
g-5-5--5----5-5-5----5-5-5----5-5-5----5-5--5----5-5--5----
D----------------------------------------------------------
A----------------------------------------------------------
E----------------------------------------------------------
 All Palm Muted

e---------------------------------------------------------
b---------------------------------------------------------
g-5--5-5----5-5-5-----------------------------------------
D---------------------------------------------------------
A---------------------------------------------------------
E---------------------------------------------------------  
   All Palm Muted.      End Riff B

1.Do you like   my stu - pid hair?___
Would you guess   that i did-n't know what to wear?

2.Please don't look  at me  with those eyes.___
Please don't hint  that your ca - pa - ble of lies.


Play: Riff B

1.I'm just scared   of   what you think.
You make me  ner - vous  so   I really can't eat.

2.I dread the thought of our  ver-y first  kiss,
a tar - get that         I'm         prob-'ly gon-na miss.

[ Tab from: http://www.guitartabs.cc/tabs/b/blink_182/first_date_tab_ver_17.html ]
Chorus:
e---------------------------------------------------------
b---------------------------------------------------------
g---------------------------------------------------------
D---5--5--5--------------5--5--5---------------------------
A---3--3--3--------------2--2--2--------------------------
E---------------------------------------------------------
              Let's Go,           don't wait,

e----------------------------------------------------------
b----------------------------------------------------------
g--2-----2-----2-----2-------------------------------------
D--2-----2-----2-----2-------3------3-/-5------------------
A--0-----0-----0-----0-------3------3-/-5------0-----------
E----------------------------1------1-/-3------0-----------
             this night's   al - most   o - ver

Play Chorus again:

             Hon-est              Let's make
             this night   last    for - ev - er 



Play Twice

e-----------------------------------------------------------
b--5-5-5--5--5-5---3-3-3--3--3---1-1-1--1--1----------------
g--5-5-5--5--5-5---0-0-0--0--0---2-2-2--2--2----------------
D--5-5-5--5--5-5---0-0-0--0--0---2-2-2--2--2---3--3-3-5-----
A--3-3-3--3--3-3---2-2-2--2--2---0-0-0--0--0---3--3-3-5--0-0
E----------------------------------------------1--1-1-3--0-0
 For - ev -er  and  ev - er  lets make this last  for-ev-er.
 For - ev -er  and  ev - er  lets make this last  for-ev-er.


 Guitar Solo
All palm muted
e-----------------------------------------------------------
b-----------------------------------------------------------
g-----------------------------------------------------------
D5-5-5-5-5-5-5-5--------------------------------------------
A3-3-3-3-3-3-3-3--------------------------------------------
E----------------0-0-0-0-0-0-0--1-1-1-1-1-1-1--3-3-3-3-3-3-3

------------------------------------------------------------
------------------------------------------------------------
------------------------------------------------------------
------------------------------------------------------------
-3-3-3-3-3-3-3-3--------------------------------------------
3----------------0-0-0-0-0-0-0--1-1-1-1-1-1-1--3-3-3-3-3-3-3


then:
Play whole thing twice

e-----------------------------------------------------------
b-----------------------------------------------------------
g-5-5-5-5-5-5-5--9-9-9-9\5-5-5---10-10-10-10\5-5-5--7-7-7-7-
D-X-X-X-X-X-X-X--X-X-X-X---X-X---X--X--X--X----X-X--X-X-X-X-
A-3-3-3-3-3-3-3--7-7-7-7\3-3-3---8--8--8--8-\3-3-3--5-5-5-5-
E-----------------------------------------------------------

e-----------------------------------------------------------
b-----------------------------------------------------------
g--7-7-7----------------------------------------------------
D--X-X-X----------------------------------------------------
A--5-5-5----------------------------------------------------
E-----------------------------------------------------------

There it is!  it is all right coz i have there tablature book, The 1 and 2 at the start of the words mean that is what he sings the first time around for the 1 and the second time around for the 2. 

send mail or wateva to KrapisKewl@aol.com, Thanx!
Comments