Blink 182 - First Date Chords & Tabs

 

First Date Chords & Tabs

Blink 182 Chords & Tabs

Version: 13 Type: Tab 0 ratings
1 star 2 stars 3 stars 4 stars 5 stars
comments

First Date Tab

--------------------------
artist=Blink 182
song=First date
email=clarkz09@hotmail.com

intro
-0---------------------------------
--1--1---3-1--1--3-1--1--3--1--00-x4
------------------------------------
------------------------------------
------------------------------------
------------------------------------
[ Tab from: http://www.guitartabs.cc/tabs/b/blink_182/first_date_tab_ver_13.html ]
verse
------------------------------------
------------------------------------
---55--555--55--555--55--555--55--55:ect
------------------------------------
------------------------------------
------------------------------------

chorus
------------------------------------
------------------------------------
--555555554444444422222222----------
--555555554444444422222222-3-3-5-5--
--333333332222222200000000-3-3-5-5--
---------------------------1-1-3-3-- x2

---------------------------------------------
---------------------------------------------
---555555--9999\55---10-10-10-10\55-7777777-7\
----------------------------------------------
---333333--7777\33--8-8-8-8-\55--5555555-5\--- x4

email me if u hav any corrections.cheers!!enjoy!!!

Comments