Blink 182 - First Date Chords & Tabs

 

First Date Chords & Tabs

Blink 182 Chords & Tabs

Version: 3 Type: Bass Tab 0 ratings
1 star 2 stars 3 stars 4 stars 5 stars
comments

First Date Bass Tab

Blink-182- First Date.
 Tabbed by Adam Lenning creamthecookie@hotmail.com.
  
        First Date
Intro: X2
G------------------------------------------------------------------:
D-----------------------------------3-3-3-3-3-3-3-3-5-5-5-5-5-5-5-5:
A-3-3-3-3-3-3-3-3-5-5-5-5-5-5-5-5-5--------------------------------:
E------------------------------------------------------------------:

Verse: X4
In the car I just canít wait, to pick you up on our very first date
Is it cool if I hold your hand? Is it wrong if I think itís lame to dance?
Do you like my stupid hair? Would you guess that I didnít know what to ware?
Iím just scared of what you think, you make me nervous so i really canít eat.
G------------------------------------------------------------------:
D------------------------------------------------------------------:
A-3-3-3-3-3-3-3-3-3-3-3-3-3-3-3-3-3--------------------------------:
E-----------------------------------3-3-3-3-3-3-3-3-1-1-1-1-1-1-1-1:

Chorus:
Letís go!  Donít wait!  This nights almost over.
Honest,  letís make  this night last forever
G--------------------------------------------------:
D--------------------------------------------------:
A-3-3-3-3--2-2-2-2--0-0-0-0-0-0-0-0----------------: X2
E-----------------------------------1-1-1-1-3-3-3-3:
Forever and ever letís make this last forever
Forever and ever letís make this last forever
G------------------------------------------------------------------:
D------------------------------------------------------------------:
A-3-3-3-3-3-3-3-3-2-2-2-2-2-2-2-2-0-0-0-0-0-0-0-0------------------: X2
E-------------------------------------------------1-1-1-1-3-3-3-3--:

Intro: X2
G------------------------------------------------------------------:
D-----------------------------------3-3-3-3-3-3-3-3-5-5-5-5-5-5-5-5:
A-3-3-3-3-3-3-3-3-5-5-5-5-5-5-5-5-5--------------------------------:
E------------------------------------------------------------------:
[ Tab from: http://www.guitartabs.cc/tabs/b/blink_182/first_date_btab_ver_3.html ]
Verse: X4
When you smile, I melt inside Iím not worthy for a minute of your time
I really wish it was only me and you. Iím jealous of everybody in the room.
Please donít look at me with those eyes please donít hint that your capable of lies
I dread the thought of our very first kiss a target that Iím probably gonna miss
G------------------------------------------------------------------:
D------------------------------------------------------------------:
A-3-3-3-3-3-3-3-3-3-3-3-3-3-3-3-3-3--------------------------------:
E-----------------------------------3-3-3-3-3-3-3-3-1-1-1-1-1-1-1-1:

Chorus:
Letís go!  Donít wait!  This nights almost over.
Honest,  letís make  this night last forever
G--------------------------------------------------:
D--------------------------------------------------:
A-3-3-3-3--2-2-2-2--0-0-0-0-0-0-0-0----------------: X2
E-----------------------------------1-1-1-1-3-3-3-3:
Forever and ever letís make this last forever
Forever and ever letís make this last forever
G------------------------------------------------------------------:
D------------------------------------------------------------------:
A-3-3-3-3-3-3-3-3-2-2-2-2-2-2-2-2-0-0-0-0-0-0-0-0------------------: X2
E-------------------------------------------------1-1-1-1-3-3-3-3--:


Bridge: X6
G-----------------------------------------------------------:
D----------------2-2-2-2-2-2-2--3-3-3-3-3-3-3--5-5-5-5-5-5-5:
A-3-3-3-3-3-3-3---------------------------------------------:
E-----------------------------------------------------------:

Chorus:
Letís go!  Donít wait!  This nights almost over.
Honest,  letís make  this night last forever
G--------------------------------------------------:
D--------------------------------------------------:
A-3-3-3-3--2-2-2-2--0-0-0-0-0-0-0-0----------------: X2
E-----------------------------------1-1-1-1-3-3-3-3:
Forever and ever letís make this last forever
Forever and ever letís make this last forever
Forever and ever letís make this last forever
Forever and ever letís make this last forever
G------------------------------------------------------------------:
D------------------------------------------------------------------:
A-3-3-3-3-3-3-3-3-2-2-2-2-2-2-2-2-0-0-0-0-0-0-0-0------------------: X4
E-------------------------------------------------1-1-1-1-3-3-3-3--: 
:: Ultimate Guitar Archive :: 
http://www.ultimate-guitar.com 



Comments