Blink 182 - Fentoozler Chords & Tabs

 

Fentoozler Chords & Tabs

Blink 182 Chords & Tabs

Version: 3 Type: Tab 0 ratings
1 star 2 stars 3 stars 4 stars 5 stars
comments

Fentoozler Tab

----------------------------------------------------------
		Fentoozler - Blink 182
----------------------------------------------------------

Tabbed By: J.D. Norwood (j_d_norwood12@hotmail.ccom)
Album:cheshire cat

			intro
e|--------------------------------------------------------|
B|--------------------------------------------------------|
G|--------------------------------------------------------|
D|----------111111111111111111----------99999999----------|
A|-99999999--9-9-9-9-9-9-9-9-9-99999999-77777777-99999999-|
E|-77777777--------------------77777777----------77777777-|

e|--------------------------------------------------------|
B|--------------------------------------------------------|
G|--------------------------------------------------------|
D|-66666666-99999999-9-8-6--------------------------------|
A|-44444444-77777777-7-6-4--------------------------------|
E|--------------------------------------------------------|
[ Tab from: http://www.guitartabs.cc/tabs/b/blink_182/fentoozler_tab_ver_3.html ]
			Chorus - X=heavy struming 
e|--------------------------------------------------------|
B|--------------------------------------------------------|
G|--------------------------------------------------------|
D|----------11XXXXXXXXXXXXXXXX----------9XXXXXXX----------|
A|-9XXXXXXX--9-X-X-X-X-X-X-X-X-9XXXXXXX-7XXXXXXX-9XXXXXXX-|
E|-7XXXXXXX--------------------7XXXXXXX----------7XXXXXXX-|

e|--------------------------------------------------------|
B|--------------------------------------------------------|
G|--------------------------------------------------------|
D|-6XXXXXXX-9XXXXXXX-9-8-6--------------------------------|
A|-4XXXXXXX-7XXXXXXX-7-6-4--------------------------------|
E|--------------------------------------------------------|

			Verse 
e|--------------------------------------------------------|
B|--------------------------------------------------------|
G|--------------------------------------------------------|
D|-66666666-99999999----------1111111111111111------------|
A|-44444444-77777777-99999999--9-9-9-9-9-9-9-9------------|
E|-------------------77777777-----------------------------|

			Outro
e|--------------------------------------------------------|
B|--------------------------------------------------------|
G|--------------------------------------------------------|
D|------6------11------99---------------------------------|
A|-9999-4-9999--9-9999-77---------------------------------|
E|-7777---7777----7777------------------------------------|

	Order
intro x2
chorus x2
verse x2
intro x2
chorus x2
verse x2
intro x2
verse x2
outro x1

==========================================================
Comments