Blink 182 - Fentoozler Chords & Tabs

 

Fentoozler Chords & Tabs

Blink 182 Chords & Tabs

Version: 1 Type: Chords 0 ratings
1 star 2 stars 3 stars 4 stars 5 stars
comments

Fentoozler Chords

Song: Fentoozler

Band: Blink-182

Album: Cheshire Cat

tabbed by: Mark's bass teacher Mike



Verse: (4x)

G:----------------------------------------------------------------------------

-----------------------------------

D:-------------4-4-4-4-4-464-------------2-2-2-2-2-4-2-1----------------------

--2-2-2-2-4-2------

A:--2-2-2-2----------------------2-2-2-2------------------------2-2-2-2-4-4-4-

4-----------------4-2-

E:----------------------------------------------------------------------------

------------------------------------

At the end of the 4th time end like this:
[ Tab from: http://www.guitartabs.cc/tabs/b/blink_182/fentoozler_crd.html ]
G:--------------------------------------------------------------

D:--4-2--------------------------------------------------------

A:-------2-4---------------------------------------------------

E:---------------------------------------------------------------

Chorus: (1x)

G:---------------------------------------------------------------------

D:-------------222222------------444444------------222222-

A:--444444------------222222------------222222------------

E:----------------------------------------------------------------------

Send me any hate mail, death threats, etc. to sittingcow@aol.com

Have fun, kids.
Comments