Blink 182 - Fentoozler Chords & Tabs

 

Fentoozler Chords & Tabs

Blink 182 Chords & Tabs

Version: 3 Type: Bass Tab 0 ratings
1 star 2 stars 3 stars 4 stars 5 stars
comments

Fentoozler Bass Tab

Song - Fentoozler
Artist - Blink-182
Album - Cheshire Cat
Tabbed by - Daniel Cummins - dan_the_man_no1@hotmail.com

Intro - X2
G|----------------------------------------------------------------------------------------------------|
D|----------------------------------------------------------------------------------------------------|
A|-------------9-9-9-9-11-9-------------7-7-9-7-6-----------------------------------------------------|
E|-7-7-7-7-7-7--------------7-7-7-7-7-7-----------7-7-7-7-7-7-9-9-9-9-9-11-12-12-12-12-12-12-12--11--7|

Verse - X2
G|----------------------------------------------------------------------------------------------------|
D|----------------------------------------------------------------------------------------------------|
A|-------------9-9-9-9-11-9-------------7-7-9-7-6-----------------------------------------------------|
E|-7-7-7-7-7-7--------------7-7-7-7-7-7-----------7-7-7-7-7-7-9-9-9-9-9-11-12-12-12-12-12-12-12--11--7|

Chorus - X1
G|----------------------------------------------------------------------------------------------------|
D|----------------------------------------------------------------------------------------------------|
A|-------------------------7-7-7-7-------------------------9-9-9-9-------------------------7-7-7-7----|
E|-9-9-9-9-9-9-9-9-9-9-9-9---------7-7-7-7-7-7-7-7-7-7-7-7---------9-9-9-9-9-9-9-9-9-9-9-9---------7-7|

G|-----------------------------|
D|-----------------------------|
A|-------------7-7-7-7-7-7-7-7-|
E|-7-7-7-7-7-7-----------------|

Bit Between Chorus and Verse - X2
G|----------------------------------------------------------------------------------------------------|
D|----------------------------------------------------------------------------------------------------|
A|-------------9-9-9-9-11-9-------------7-7-9-7-6-----------------------------------------------------|
E|-7-7-7-7-7-7--------------7-7-7-7-7-7-----------7-7-7-7-7-7-9-9-9-9-9-11-12-12-12-12-12-12-12--11--7|
[ Tab from: http://www.guitartabs.cc/tabs/b/blink_182/fentoozler_btab_ver_3.html ]
Verse 2 - X2
G|----------------------------------------------------------------------------------------------------|
D|----------------------------------------------------------------------------------------------------|
A|-------------9-9-9-9-11-9-------------7-7-9-7-6-----------------------------------------------------|
E|-7-7-7-7-7-7--------------7-7-7-7-7-7-----------7-7-7-7-7-7-9-9-9-9-9-11-12-12-12-12-12-12-12--11--7|

Chorus - X1
G|----------------------------------------------------------------------------------------------------|
D|----------------------------------------------------------------------------------------------------|
A|-------------------------7-7-7-7-------------------------9-9-9-9-------------------------7-7-7-7----|
E|-9-9-9-9-9-9-9-9-9-9-9-9---------7-7-7-7-7-7-7-7-7-7-7-7---------9-9-9-9-9-9-9-9-9-9-9-9---------7-7|

G|-----------------------------|
D|-----------------------------|
A|-------------7-7-7-7-7-7-7-7-|
E|-7-7-7-7-7-7-----------------|

Bridge (guitar solo) - X2
G|----------------------------------------------------------------------------------------------------|
D|----------------------------------------------------------------------------------------------------|
A|-------------9-9-9-9-11-9-------------7-7-9-7-6-----------------------------------------------------|
E|-7-7-7-7-7-7--------------7-7-7-7-7-7-----------7-7-7-7-7-7-9-9-9-9-9-11-12-12-12-12-12-12-12--11--7|

Chorus - X1
G|------------------------------------------------------------------------------------------------|
D|------------------------------------------------------------------------------------------------|
A|-------------------------7-7-7-7-------------------------9-9-9-9-------------------------7-7-7-7|
E|-9-9-9-9-9-9-9-9-9-9-9-9---------7-7-7-7-7-7-7-7-7-7-7-7---------9-9-9-9-9-9-9-9-9-9-9-9--------|

Outro - X1
G|------------------------------------------------------------------------------------------------|
D|------------------------------------------------------------------------------------------------|
A|----------------7-7-7-7-7-7-7-7-----------------9-9-9-9-9-9-9-9------------------7-7-7-7-7-7-7-7|
E|7-7-7-7-7-7-7-7-----------------7-7-7-7-7-7-7-7-----------------7-7-7-7-7-7-7-7-----------------|

Im sure this is perfect but the rhythm isnt shown(im not very gd @ tabbing rhythm) but 
rate and comment.
Comments