Blink 182 - Feels So Good Chords & Tabs

 

Feels So Good Chords & Tabs

Blink 182 Chords & Tabs

Version: 1 Type: Tab 0 ratings
1 star 2 stars 3 stars 4 stars 5 stars
comments

Feels So Good Tab

Artist:        Blink 182
Song:        Feels So Good (Cowboy Song)
Album:      -not on an album-
Tab by:      Mike Rancid (Rancid027@aol.com)

This is a tab of "Feels So Good (Cowboy Song)" by Blink 182.  They only play the song live, and it has several different versions of lyrics.  The music stays the same through out.

Verse 1 "Take off your pants dad....":
[ Tab from: http://www.guitartabs.cc/tabs/b/blink_182/feels_so_good_tab.html ]
G:---------------------------------------------------------------
D:0-4--4-0-4--4-0-4--4-0----------------------------------
A:-----0--------0-------0----0-2-3---------------------------
E:---------------------------------------------------------------

Chorus "Because I know, it feels so good....":

G:---------------------------------------------------------------
D:---------------------------------------------------------------
A:0-0-0-0-0-0-0-0-2-2-2-2-2----------------------------
E:---------------------------------------------------------------

Verse 2 "Take off your pants sister....":

G:---------------------------------------------------------------
D:0-4--4-0-4--4-0-4--4-0----------------------------------
A:-----0--------0-------0----0-2-3---------------------------
E:---------------------------------------------------------------

Comments