Blink 182 - Feeling This Chords & Tabs

 

Feeling This Chords & Tabs

Blink 182 Chords & Tabs

Version: 9 Type: Tab 0 ratings
1 star 2 stars 3 stars 4 stars 5 stars
comments

Feeling This Tab

   
intro
e--------------
B--------------
G------------1-
D-4p2-22----2--
A--------2-----
E--------------

verse
e----------------
B----------------
G----------------
D-4p2-22----2/6\2
A--------2-------
E----------------

doesnt play during chorus 1

after chorus
e-----------------------------------------
B-----------------------------------------
G-9999-11-11-11-11-13-13-13-13-14-14-14-14
D-xxxx--x--x--x--x--x--x--x--x--x--x--x--x
A-7777--9--9--9--9-11-11-11-11-12-12-12-12
E-----------------------------------------

verse
e----------------
B----------------
G----------------
D-4p2-22----2/6\2
A--------2-------
E----------------

doesnt play chorus 2
[ Tab from: http://www.guitartabs.cc/tabs/b/blink_182/feeling_this_tab_ver_9.html ]
e------------------------------------
B------------------------------------
G-99999999-44444444-66666666-22222222
D-99999999-44444444-66666666-22222222
A-77777777-22222222-44444444-00000000
E------------------------------------
p.m..................................

chorus 3
e------------------------------------
B------------------------------------
G-99999999-44444444-66666666-22222222
D-99999999-44444444-66666666-22222222
A-77777777-22222222-44444444-00000000
E------------------------------------

e----------------
B----------------
G----------------
D-4p2-22----2/6\2  is played in the background...don't know exactly at what
A--------2-------  time so you have to figure that out.
E----------------
Comments