Blink 182 - Feeling This Chords & Tabs

 

Feeling This Chords & Tabs

Blink 182 Chords & Tabs

Version: 6 Type: Tab 0 ratings
1 star 2 stars 3 stars 4 stars 5 stars
comments

Feeling This Tab

Blink 182
"Feeling This"

standard tuning

drums in beginning...

E-----------------------------------
B-----------------------------------
G-----------------------------------X2 (listen to song for rythem)
D-------------------6---------------
A---9---7777-----7------------------
E-------------0---------0-----------
(this part also played after buildup to 2nd verse)

Verses:
[ Tab from: http://www.guitartabs.cc/tabs/b/blink_182/feeling_this_tab_ver_6.html ]
E--------------------------------------
B--------------------------------------
G---11---9999--------9----13-----------
D---11---9999--------9----13-----------
A---9----7777---7----7----11---7-------
E---------------0--------------0-------


Chorus:

E----------
B----------
D----2-----
A----2-----
E----0-----
(played on FATE and PLACE)


After 1st Chorus:

E------------------------------
B------------------------------
G----9----11---13----14--------
D----x----x----x-----x---------
A----7----9----11----12--------
E------------------------------


End Chorus:

E----------------------------------
B----------------------------------
G---------4----6----2--------------
D----2----4----6----2--------------
A----2----2----4----0--------------
E----0-----------------------------
Comments