Blink 182 - Feeling This Chords & Tabs

 

Feeling This Chords & Tabs

Blink 182 Chords & Tabs

Version: 2 Type: Tab 0 ratings
1 star 2 stars 3 stars 4 stars 5 stars
comments

Feeling This Tab

X=Mute
>=Slide

Verse
1---------------------------------------------------------
2---------------------------------------------------------
3--11>--9-9-9-9---9--13----------------------------
4--x->---x-x--x-x----x----x-----------------------------
5--9->--7-7-7-7---7---11----------------------------
6-------------------0------------------------------------- X10

Chorus
1----------------------------------------------------
2----------------------------------------------------
3---9-------------9---------------------------------
4---x--------------x---------------------------------
5---7-------------7---------------------------------
6---0-------------0---------------------------------
[ Tab from: http://www.guitartabs.cc/tabs/b/blink_182/feeling_this_tab_ver_2.html ]
Bridge
1-----------------------------------------------------
2-----------------------------------------------------
3---9-------11-----13-------14-------------------
4---x--------x-------x----------x--------------------
5---7-X8---9-x8--11-X8--12-X8---------------
6-----------------------------------------------------

Chorus 2
1------------------------------------------------------
2------------------------------------------------------
3------------------------------------------------------
4---9--------------------------------------------------
5---7-X8--9-------11---------7---------------------
6-----------7-X8----9-X8-----5-X8----------------- X10

Verse
Chorus
Bridge
Verse 
Chorus
Chorus
Pause
Chorus 2
Comments