Blink 182 - Feeling This Chords & Tabs

 

Feeling This Chords & Tabs

Blink 182 Chords & Tabs

Version: 8 Type: Bass Tab 0 ratings
1 star 2 stars 3 stars 4 stars 5 stars
comments

Feeling This Bass Tab

   
Band:     Blink 182
Song:     Feeling This
Bassist:  Mark Hoppus
Tuning:   Standard

These are the 100% correct tabs.

Intro - (No Bass)

Verse (Fast alterant picking)
(I've got a regret right now...)
G |------------------|
D |------------------|
A |------------------|    x8
E |-88888888-3333333-|

Chorus
(Fate, Feel, Short, This, Time...)
G |---------------------------------|
D |---------------------------------|
A |---------2-2-2-2-3-3-3-3-0-0-0-0-|    x2
E |-0-0-0-0-------------------------|

(Where do we go from here...)

Verse (Fast alternate picking)
(Smiling from ear to ear...)
G |------------------|
D |------------------|
A |------------------|    x6
E |-88888888-3333333-|
[ Tab from: http://www.guitartabs.cc/tabs/b/blink_182/feeling_this_btab_ver_8.html ]
Chorus
(Fate, Feel, Short, This, Time...)
G |---------------------------------|
D |---------------------------------|
A |---------2-2-2-2-3-3-3-3-0-0-0-0-|    x6
E |-0-0-0-0-------------------------|

Interlude pt. 1
(Fate, Feel, Short, This, Time...)

Interlude pt. 2 (Strike this note just before the lyrics start and let ring.)
(This Place was never the same again...)
G |---------------------------------|
D |---------------------------------|
A |--7*-----------------------------|
E |---------------------------------|

Chorus
(Fate, Feel, Short, This, Time...)
G |---------------------------------|
D |---------------------------------|
A |---------2-2-2-2-3-3-3-3-0-0-0-0-|    Play until the song fades out.
E |-0-0-0-0-------------------------|
Comments