Blink 182 - Feelin This Chords & Tabs

 

Feelin This Chords & Tabs

Blink 182 Chords & Tabs

Version: 1 Type: Tab 4 ratings
1 star 2 stars 3 stars 4 stars 5 stars
comments

Feelin This Tab

   
e-----------------------
b-----------------------
g-9-9-9-9-9-----9-13-9-- x2 Intro and over and over for Verse
d-9-9-9-9-9-----9-13-9--
a-7-7-7-7-7-----7-11-7--
E------------0----------

Show me the way to bed,..........


Interlude
[ Tab from: http://www.guitartabs.cc/tabs/b/blink_182/feelin_this_tab.html ]
e-----------------------------------------------------------------               ---
b-----------------------------------------------------------------               ---
g----------------------------------------------------------------- x2 but end on ---
d-6-6-6-6-6-6-6-6-4-4-4-4-4-4-4-4-2-2-2-2-2-2-2-2-4-4-4-4-4-4-4-4-               -2-
a-7-7-7-7-7-7-7-7-0-0-0-0-0-0-0-0-4-4-4-4-4-4-4-4-0-0-0-0-0-0-0-0-               -0-
E-----------------------------------------------------------------               ---
  pm.............................................................
Look to the past and remember a smile, and maybe tonight I can breathe for a while...


Last Chorus

e-----------------------------------------------------------------
b-----------------------------------------------------------------
g----------------------------------------------------------------- Until it fades out.
d-9-9-9-9-9-9-9-9-9-9-9-9-9-9-9-9-6-6-6-6-6-6-6-6-----------------
a-7-7-7-7-7-7-7-7-6-6-6-6-6-6-6-6-4-4-4-4-4-4-4-4-7-7-7-7-7-7-7-7-
E-------------------------------------------------5-5-5-5-5-5-5-5-

  Fate fell short this time smile fades in the summer
  Face your...Your Feelings..........................   etc.
Comments