Blink 182 - Family Reunion Chords & Tabs

 

Family Reunion Chords & Tabs

Blink 182 Chords & Tabs

Version: 6 Type: Tab 0 ratings
1 star 2 stars 3 stars 4 stars 5 stars
comments

Family Reunion Tab

Is the easiest song to play

e----------------------------------------
b----------------------------------------
g----------------------------------------
d----------------------------------------
a---0------------------------------------
E----------------------------------------

Let Ring...
Then

PAL. M.
e-------------------------------------------------
b-------------------------------------------------
g-------------------------------------------------
d-------------------------------------------------
a---0--0--0--0--0--0--0--0--2--2--2--2--2--2--2--2
E-------------------------------------------------

e-------------------------------------------------
b-------------------------------------------------
g-------------------------------------------------
d-------------------------------------------------
a---4--4--4--4--4--4--4--4--5--5--5--5--5--5--5--5
E-------------------------------------------------

Than.....
[ Tab from: http://www.guitartabs.cc/tabs/b/blink_182/family_reunion_tab_ver_6.html ]
e-------------------------------------------------
b-------------------------------------------------
g------------2(let Ring)-------------2(let ring)--
d-------------------------------------------------
a---0--0--0-----------------2--2--2---------------
E-------------------------------------------------

e-------------------------------------------------
b-------------------------------------------------
g------------2(let Ring)-------------2(let ring)--
d-------------------------------------------------
a---4--4--4-----------------5--5--5---------------
E-------------------------------------------------


Then you play
e-------------------------------------------------
b-------------------------------------------------
g---2--2--2--2--2--2--2--2--4--4--4--4--4--4--4--4
d---2--2--2--2--2--2--2--2--4--4--4--4--4--4--4--4
a---0--0--0--0--0--0--0--0--2--2--2--2--2--2--2--2
E-------------------------------------------------

e-------------------------------------------------
b-------------------------------------------------
g---6--6--6--6--6--6--6--6--7--7--7--7--7--7--7--7
d---6--6--6--6--6--6--6--6--7--7--7--7--7--7--7--7
a---4--4--4--4--4--4--4--4--5--5--5--5--5--5--5--5
E-------------------------------------------------

Thats it

Finish with 

g--7
d--7
a--5
Comments