Blink 182 - Family Reunion Chords & Tabs

 

Family Reunion Chords & Tabs

Blink 182 Chords & Tabs

Version: 3 Type: Tab 0 ratings
1 star 2 stars 3 stars 4 stars 5 stars
comments

Family Reunion Tab

This is from the Mark, Tom and Travis Show and is real easy and only lasts about 30 
seconds. It's just:

e--------
b--------
g--------
d---7----
a---7----
e---5----

here play each x4:
e-------------------------
b-------------------------
g-------------------------
d---7---9---11---12-------
a---7---9---11---12-------
e---5---7----9---10-------
[ Tab from: http://www.guitartabs.cc/tabs/b/blink_182/family_reunion_tab_ver_3.html ]
then go:
e--------------------------------------
b--------------------------------------
g--------------------------------------
d---7-7-7---9-9-7---11-11------12-12---
a---7-7-----9-9-----11-11-12---12-12-12
e---5-5-----7-7------9--9------10-10---

then play each x4
e-----------------------
b-----------------------
g-----------------------
d---7---9---11---12-----
a---7---9---11---12-----
e---5---7----9---10-----

then finish on:
e----------
b----------
g----------
d----7-----
a----7-----
e----5-----

Thats 100% correct. Any comments send to ljtpezcore@hotmail.com
Comments