Blink 182 - Family Reunion Chords & Tabs

 

Family Reunion Chords & Tabs

Blink 182 Chords & Tabs

Version: 2 Type: Tab 0 ratings
1 star 2 stars 3 stars 4 stars 5 stars
comments

Family Reunion Tab

Blink 182 -  Family Reunion.
 Tabbed by JokerDmb83@aol.com .
  
Hey everyone, this may be my first tab BUT i am 100% positive that it is right. I was reading someone elses tab and then saw a chord that was off, and i re-did it and i know itz right so here it is, have fun! :-)

-------------------------------------------------------------------------------------------------------------------------------------------------------------------7----------------------------------------------------
-7----------------------------------------------------
-5------------------LeT RinG OuT.....
------------------------------------------------------


Verse 1: 
-------------------------------------------------------------------------------------------------------------000000--4444444--6666666--7777777--------------------
-222222--4444444--6666666--7777777--------------------
-222222--2222222--4444444--5555555--------------------
------------------------------------------------------
[ Tab from: http://www.guitartabs.cc/tabs/b/blink_182/family_reunion_tab_ver_2.html ]
Verse 2: This part may need some more thought but here it is for now!! 
------------------------------------------------------
------------------------------------------------------
----------4444-----6666-----77777---------------------
-2222--2--4444--2--6666--2--77777---------------------
-2222-----2222-----4444-----55555---------------------
------------------------------------------------------
***^^^Palm MuTe^^^***

Outro: This is a bit FaSTeR TeMpo than before
------------------------------------------------------
------------------------------------------------------
-00000--44444--66666--77777-7..let ring out-----------
-22222--44444--66666--77777-7-------------------------
-22222--22222--44444--55555-5-------------------------
------------------------------------------------------
Alright fellaz n gals, thatz it, hope it comes easy to ya, if u want to email me or talk to me, my Screen Name is JokerDmb83, and my email adress is JOkerDmb83@aol.com!!!! GOODLUCK
 
:: Ultimate Guitar Archive :: 
http://www.ultimate-guitar.com 



Comments