Blink 182 - Everytime I Look For You Chords & Tabs

 

Everytime I Look For You Chords & Tabs

Blink 182 Chords & Tabs

Version: 3 Type: Tab 0 ratings
1 star 2 stars 3 stars 4 stars 5 stars
comments

Everytime I Look For You Tab

Everytime i look for you
blink 182
this is my first tab so if its wrong-   meh   -


:00 to :15
e|--------|--------|--------|------------------------------|
B|--------|--------|--------|------------------------------|
G|-4--44--|--4--44-|-4---4--|------------------------------|
D|--------|--------|--------|------------------------------|
A|-2--22--|--2--22-|-2---2--|------------------------------|
E|--------|--------|--------|------------------------------|

:22 to :30
e|---------------------------------------------------------|
B|--0-0-5-4---0-5-4---0-5-4----0-2-0-----------------------|
G|---------------------------------------------------------|
D|---------------------------------------------------------|
A|---------------------------------------------------------|
E|---------------------------------------------------------|

:37  to  :42
e|---------------------------------------------------------|
B|--0-0-5-4---0-5-4---0-5-4----0-2-0-----------------------|
G|---------------------------------------------------------|
D|---------------------------------------------------------|
A|---------------------------------------------------------|
E|---------------------------------------------------------|


:45  to  :58
e|--------|--------|--------|------------------------------|
B|--------|--------|--------|------------------------------|
G|-4--44--|--4--44-|-4---4--|------------------------------|
D|--------|--------|--------|------------------------------|
A|-2--22--|--2--22-|-2---2--|------------------------------|
E|--------|--------|--------|------------------------------|


:59  to  1:03
e|----------------------------------------------------------|
B|----------------------------------------------------------|
G|----------------------------------------------------------|
D|-2222222222222222-----------------------------------------|
A|-2222222222222222-----------------------------------------|
E|-0000000000000000-----------------------------------------|


1:04  to  1:10
e|---------------------------------------------------------|
B|--0-0-5-4---0-5-4---0-5-4----0-2-0-----------------------|
G|---------------------------------------------------------|
D|---------------------------------------------------------|
A|---------------------------------------------------------|
E|---------------------------------------------------------|

[ Tab from: http://www.guitartabs.cc/tabs/b/blink_182/everytime_i_look_for_you_tab_ver_3.html ]
1:18  to  1:25
e|---------------------------------------------------------|
B|--0-0-5-4---0-5-4---0-5-4----0-2-0-----------------------|
G|---------------------------------------------------------|
D|---------------------------------------------------------|
A|---------------------------------------------------------|
E|---------------------------------------------------------|


1:26  to  1:40
e|--------|--------|--------|------------------------------|
B|--------|--------|--------|------------------------------|
G|-4--44--|--4--44-|-4---4--|------------------------------|
D|--------|--------|--------|------------------------------|
A|-2--22--|--2--22-|-2---2--|------------------------------|
E|--------|--------|--------|------------------------------|


1:41  to  1:44
e|---------------------------------------------------------|
B|---------------------------------------------------------|
G|---------------------------------------------------------|
D|-2222222222222222----------------------------------------|
A|-2222222222222222----------------------------------------|
E|-0000000000000000----------------------------------------|


1:45  to  2:29
e|-----------------|--------------|----------|--------------|
B|-----------------|--------------|----------|--------------|
G|4444444444444444-|-888888888888-|-11111111-|--------------|
D|-----------------|--------------|----------|--------------|
A|2222222222222222-|-666666666666-|-9-9-9-9--|--------------|
E|-----------------|--------------|----------|--------------|

e|-----------------------------------------------------------|
B|-----------------------------------------------------------|
G|-99999999999999999999999999999999--------------------------|
D|-----------------------------------------------------------|
A|-77777777777777777777777777777777--------------------------|
E|-----------------------------------------------------------|

2:30  to  end
e|--------|--------|--------|------------------------------|
B|--------|--------|--------|------------------------------|
G|-4--44--|--4--44-|-4---4--|------------------------------|
D|--------|--------|--------|------------------------------|
A|-2--22--|--2--22-|-2---2--|------------------------------|
E|--------|--------|--------|------------------------------|

the timing of the intro and end is probally wrong so use can figure it out your self
Comments