Blink 182 - Enema Of The State Chords & Tabs

 

Enema Of The State Chords & Tabs

Blink 182 Chords & Tabs

Version: 2 Type: Bass Tab 0 ratings
1 star 2 stars 3 stars 4 stars 5 stars
comments

Enema Of The State Bass Tab

   
Artist: Blink-182
Album: Enema of the State
Tabbed by: Spartan101
E-mail: zpro@sbcglobal.net
Tuning: Standard

ALBUM ORDER
1.Dumpweed
2.Don't Leave Me
3.Alien's Exist
4.Going Away to College
5.What's My Age Again?
6.Dysentery Gary
7.Adam's Song
8.All the Small Things
9.Party Song*
10.Mutt
11.Wendy Clear*
12.Anthem

This whole album is primarily simple to play compared to the bass of Dude Ranch.
The bass rarely has its moments where it takes a solo or has a neat line in the
background. Mark uses a lot more eighth notes as back up to the guitar. But, it's
blink so I don't care. They're my favorite band and it's always fun to bust out
some Blink so enjoy this tab.

~if there is a x# on the right of a bar, play that bar only the indicated # of
times then continue on to the next line. If there is no #, then play it once

~I'm not going to put the play order at the end of every song nut I'll put what's
played in each part of each song and if a part is repeated, I will simply put the
part of the song needed to be repeated. (e.g. "Verse"—play the verse as it was played
originally.) I will tell you if there is a change in the section and if you play it
less times or more times than before.

~If I put a (x#) next to the name of the song section, it indicates how many times
you play the entire section of the song, not just one line. If there is no #, then
play the section once

| /  slide up
| \  slide down
| h  hammer-on
| p  pull-off
| ~  vibrato
| x  Mute note

-----------------------------------------------------------------------

1. DUMPWEED

Intro
G-------------------------|
D-------------------------|
A-------------------------|
E-0~---0-0~-----5~---5-5~-|

G-------------------------------------|
D-------------------------------------|
A-----------00000000-222222222222-000-| x2
E--00000000---------------------------|

Verse (x2)
G---------------------------------------------------------------------|
D---------------------------------------------------------------------| 
A----------22222------------22222---00000000-22222---00000000-2222h4p2|
E-00000000---------00000000-------------------------------------------|

Intro (first part only)

Chorus
G--------------------------------------------------------------------|
D--------------------------------------------------------------------|
A-----------22222222-00000000-22222222----------22222222-0000000-2—2-|
E--00000000----------------------------00000000----------------------|

Intro (second part only)
Verse (x1)
Intro (first part only)
Chorus (x2)

Outro (x4)
G-----------------------------------------------------------------|
D-----------------------------------------------------------------|
A----------22222-----------22222---0000000-22222---00000000-22222-|
E—-0000000---------0000000----------------------------------------|

-----------------------------------------------------------------------

2. DON'T LEAVE ME

Intro (x2)
G-----------------------------------------------------------|
D-----------------------------------------------------------|
A-xxx-0-0-0-0-0-xxx-5-5-5-5-5-xxx-2-2-2-2-5-5-5-5-7-7-7-7-7-|
E-----------------------------------------------------------| 

Verse
G-------------------------------------|
D-------------------------------------|
A-00000000-55555555-22222222-55555555-|
E-------------------------------------|

G---------------------------------------|
D---------------------------------------|
A-00000000-55555555-22222222-55557xxxxx-|
E---------------------------------------|

Chorus 
G---------------------|
D---------------------| 
A-0000-2222-5555-7777-| x3
E---------------------|

G--------------------|
D--------------------|
A-0000-2222-55555xxx-|
E--------------------|

Intro
Verse
Chorus

Bridge (x8)
G--------------------|
D------9999-77777777-|
A-0000-7777-55555555-|
E--------------------|

Chorus

Outro
G----------------------------------------|
D----------------------------------------|
A-00000000-55555555-22222222-5555-7--0~~-|
E----------------------------------------|

-----------------------------------------------------------------------

3. ALIEN'S EXIST

Intro (there's a drum lick and then play when guitar starts muting)
G--------------------|
D-44444444-----------|
A-22222222-4444-6666-|
E--------------------|

Verse
G-------------------------------------|
D-------------------------------------|
A-22222222----------------------------| x2
E----------22222222-44444444-00000000-|

G-------------------------------------|
D-------------------------------------|
A-22222222-44444444-------------------|
E-------------------44444444-00000000-|

G-------------------------------------|
D-------------------------------------|
A-22222222----------------------------|
E----------22222222-44444444-00000000-|

Interlude (x2)
G-----------------------------|
D-----------------------------|
A-22222-----------------------|
E--------00-0-0-44444--00-0-0-|

Verse 

(this is the final line in the verse)
G----------------------------|
D----------------------------|
A-22222222-------------------|     this time the last 0s will
E----------22222222-44444444-| <<< be replaced by a drum lick

Chorus (x2)
G-----------------------------------|
D-------------2222------------------|
A-222222222222----------------------|
E------------------2222222222222222-|

Post-chorus
G-----------------------------------|
D-----------------------------------|
A-----------------------------------| x2
E-4444444444442222-0000000000000000-|

G-----------------------|
D---------4~~~~~~~------|
A---------2~~~~~~~------|
E-2~~~0~~~--------2~~~0-|

Interlude

Verse

(This is the last line as well)
G------------------------------|
D------------------------------|
A-22222222---------------------|
E----------22222222-44444444-0-|

Chorus 
Post-chorus

Bridge
G----------------------------------------------------------------------|
D----------------------------------------------------------------------|
A----------------------------------------------------22222222----------|
E-4444444444444444-2222222222222222-0000000000000000----------22222222-|

G----------------------------------------------------------------------|
D----------------------------------------------------------------------|
A----------------------------------------------------22222222-44444444-| x2
E-4444444444444444-2222222222222222-0000000000000000-------------------|

G-----------------------------------------------------------------------|
D-----------------------------------------------------------------4-444-|
A-6-6-6-6-6-6-6-6-9-9-9-9-9-9-9-9-7-7-7-7-7-7-7-7-2-2-2-2-2-2-2-2-------|
E-----------------------------------------------------------------------|

Chorus

Post-chorus

(the second line should be like this)
G------------------|
D---------4~~~~~~~-| 
A---------2~~~~~~~-| x2
E-2~~~0~~~---------|

------------------------------------------------------------------------

4. GOING AWAY TO COLLEGE

The song starts off with the guitar then after it stops the bass comes in
with the guitar's single notes

Intro (x2)
G---------------------------------|
D---------------------------------|
A-222-222-222-222-----------------|
E-----------------000-000-222-222-|

Verse (x4)
G---------------------------------|
D---------------------------------|
A-2-2-2-2-2-2-2-2-7-7-7-7-9-9-9-9-|
E---------------------------------|

Interlude (x2)
G----------------------------|
D----------------------------|
A-6-66-6-666-7-7-7-7-9-9-9-9-|
E----------------------------|

Intro
Verse
Interlude

Chorus 
G---------------------------------|
D---------------------------------|
A-6-6-6-6-7-7-7-7-----------------| x3
E-----------------7-7-7-7-2-2-2-2-|

G------------------------------|
D------------------------------|
A-6-6-6-6-7-7-7-7--------------|
E-----------------7-7-7-7-2~~~-|

Intro
Verse (x2)
Interlude
Chorus

Bridge (the first hammer is fast but the second is slow. Listen to the CD.)
G-------------------------------------------------|
D-------------------------------------------------|
A-2~~~~~~~7~~~~~~~7h9p7-2~~~~~~~2h4-6-7~~~~~~~9-7-|
E-------------------------------------------------|

Chorus

------------------------------------------------------------------------

5. WHAT'S MY AGE AGAIN?

The timing to start seems funky but, again, listening to the CD will help the timing.

Intro/Verse
G---------------------|
D---------------------|
A-2222------4444-6666-| x5
E------2222-----------|

G------------------------------|
D------------------------------|
A--2222------44444444-22222222-| 
E-------2222-------------------|

Chorus
G--------------------|
D--------------------|
A----44---66---22222-| x3
E--2-----------------|

G--------------------------------|
D--------------------------------|
A----44---66666666-44444444-2~~~-|<<A-10101010101010101010101010101010-12121212121212121212121212h14p12-|
E------------------------------------------------------------------------|

G------------------------------------------------------------------------|
D------------------------------------------------------------------------|
A-5555555555555h7p5---------------------------------------------22224444-|
E-------------------7777777777775h7p5-3333333333332h3p2-55555555---------|

Interlude
G--------------------------------------------------------------|
D--------------------------------------------------------------|
A-5~~~~~~~------------------5555555555555555-------------------|
E---------33333333-55555555------------------33333333-55555555-|

Verse
Pre-chorus (x2)
Chorus
Post-chorus
[ Tab from: http://www.guitartabs.cc/tabs/b/blink_182/enema_of_the_state_btab_ver_2.html ]
Bridge             x3                 x1
G--------------------|---------------------|
D--------------------|---------------------|
A------------10p9-12-|---------------------|
E-10h12p10~~~--------|-10h12p10~~~3~~~~~~~-|

Post-chorus

------------------------------------------------------------------------

7. ADAM'S SONG

Intro (Guitar Only)

Verse (x4)
G-------------------------------------|
D-------------------------------------|
A-33333333----------00000000----------|
E----------11111111----------11111111-|

Interlude/Pre-chorus (x2) (bass comes in when the guitar repeats)
G-------------------------------------| 
D-------------------------------------| On the first time, play
A-33333333-55555555-------------------| softly behind the guitar.
E-------------------55555555-11111111-| On the second, play louder.

Chorus
G-------------------------------------|
D-------------------------------------|
A-33333333-55555555----------88888888-|
E-------------------55555555----------|

Interlude
Intro
Verse
Interlude
Chorus
Interlude

Bridge (x3)
G-----------5--5-5--7--7-7--5--5-5-|
D---5--5-533-33-3-55-55-5-33-33-3--|
A-33-33-3--------------------------|
E----------------------------------|

G-----------5--5-5--7--7-7---9---5-|
D---5--5-533-33-3-55-55-5--77--33--|
A-33-33-3--------------------------|
E----------------------------------|

Outro 
G-------------------------------------|
D-------------------------------------|
A-33333333-55555555----------88888888-| x3
E-------------------55555555----------|

Chorus (afterward hit A3 and let it ring)

------------------------------------------------------------------------

8. ALL THE SMALL THINGS

Intro (x2) skip the first bit when you repeat
G-----|-------------------------------------|
D-----|-------------------------------------|
A-3-1-|-33333333-88888888-------------------|
E-----|-------------------33333333-xxxxx111-|
                                 
Verse (x4)
G------------------------------------|
D------------------------------------|
A-33333333---------------------------|
E-------- 33333333-11111111-33333333-|

Pre-chorus ("Say it ain't...")
G---------------------------------------------|
D---------------------------------------------|
A-33333333-33333333-1010101010101010-88888888-| 10s, not 1s and 0s
E---------------------------------------------|

Chorus (x2)
G------------------------------------|
D------------------------------------|
A-33333333-33333333------------------|
E-------------------33333333-1111111-|

Varied Intro x2
G-------------------------------------|
D-------------------------------------|
A-33333333-88887777-------------------|
E-------------------33333333-xxxxx111-|

Verse (x2)
Pre-chorus
Chorus

Bridge          x3           x1
G-----------------|------------|
D-10~~~12~~~14~~~-|-10~~~12~~~-|
A-----------------|------------|
E-----------------|------------|

Chorus 

Outro
G-----------------------------------|
D-----------------------------------|
A-33333333333333333-----------------|
E------------------33333333-xx1-xx1-|

G-------------------------------------------------|
D-------------------------------------------------|
A-3333333333333333--------------------------------|
E------------------33333333-xx1-xx1-xx1-xx1-3~~~~-|

------------------------------------------------------------------------

9. PARTY SONG*

Verse 
G-------------------------------------|
D-------------------------------------|
A----------77777777-44444444-77777777-| x3
E-77777777----------------------------|

G------------------------------------------------|
D------------------------------------------------|
A----------77777777-44444444-77779999------------|
E-77777777----------------------------77777777-7-|

(pause)

Verse

Interlude (quiet part)
G--------|
D--------|
A----9-7-| x3 
E-7~~----|

G--------|
D--------|
A------4-|
E-7~~6---|

G---------------------------------------------|
D---------------------------------------------|
A-------44444-77777-99999-------44444-77777-9-|
E-77777-------------------77777---------------|

Chorus (x4)
G|------------------------------------|
D|------------------------------------|
A|---------77777777-44444444-77777777-|
E|77777777----------------------------|

Verse
Interlude
Chorus (x5)

(after the five chorus lines)
G------------------------------------------|
D------------------------------------------|
A----------77777777-44444444-77777777------|
E-77777777----------------------------7~~~-|

------------------------------------------------------------------------

10. MUTT


Intro
G---9---9---9---9---9---9---9---9---------------------------------|
D-77--77--77--77--77--77--77--77----7---7---7---7---7---7---7---7-|
A --------------------------------55--55--55--55--55--55--55--55--|
E-----------------------------------------------------------------|

G-----------------------------------------------------------------------|
D-------------------------------------------------------------4444-2222-|
A-000000000000000000000000-2222-4444-555555555555555555555555-----------|
E-----------------------------------------------------------------------|

G-----------------------------------------------------------------------|
D-----------------------------------------------------22222222-00000000-|
A-000000000000000000000000-2222-4444-5555555555555555-------------------|
E-----------------------------------------------------------------------|

Verse/Chorus                           x4                              x1            
G----------------------------------------|-------------------------------|
D----------------------44444444-22222222-|-0000-0000-0000-0000-2222-2222-|
A--0000-0000-0000-0024-------------------|-------------------------------|
E----------------------------------------|-------------------------------|

Interlude (x6)
G------------------------------------------|
D---------------------------4--------------|
A-0-00-7h9p7-0-00-7h9p7-2-22--2-5-55-5h7p5-|
E------------------------------------------|

Intro (skip first line)
Verse/Chorus
Interlude

Bridge (x2)
G---------------------|
D---------------------|
A-00-------22---55-44-|
E---------------------|

Interlude 

Outro
G------------------------------------------------|
D------------------------------------------------|
A-0~~~~~~~22~~~55~44~00~~~~~~22~~~55~44~0~~~~~~~-|
E------------------------------------------------|

------------------------------------------------------------------------

11. WENDY CLEAR*

The guitar starts off the song with an unforgettable lick.

Intro x1
G------------------------------|
D------------------------------|
A-3(x32)-8(x32)-10(x16)-8(x16)-|
E------------------------------|

Verse (x2)
G------------------------------------------------------------|
D------------------------------------------------------------|
A-3(x31)------------------00000000----------3333333333333333-|
E-------3-111111111111111----------11111113------------------|

Pre-chorus
G----------------------------------------------------------------------|
D----------------------------------------------------------------------|
A-1010101010101010-88888888-3333333333333333-1010101010101010-88888888-|
E----------------------------------------------------------------------|

Chorus 
G-------------------------------------------------------|
D-------------------------------------------------------|
A-------------------33333333----------------------------|
E-55555555-11111111----------33333333-55555555-11111111-|

Intro
Verse
Pre-chorus
Chorus

Bridge (play the bunch of 3s at the end of the first time only)
G-----------------------------------|-------------------|
D-----------------------------------|-------------------|
A-----------33----------------------|-33333333333333333-|
E-55---11--------33---55---11111111-|-------------------|

Intro
G-------------------------------------|
D-------------------------------------|
A-3(x32)-8(x32)-10(x16)-8(x16)-3(x32)-|
E-------------------------------------|

Guitar Interlude

Outro
G-----------------------------------------------------------------------|
D-----------------------------------------------------------------------|
A-3333333333333333-------------------3333333333333333-------------------|
E------------------33333333-11111111------------------33333333-11111111-|

G--------------------------------------|
D--------------------------------------|
A-3333333333333333/10~~~8~~~-3~~~~~~~~-|
E--------------------------------------|

-------------------------------------------------------------------------------

12. ANTHEM

Guitar has the intro with some chords. After the drums pop in and right when Tom
starts singing is where the bass jumps in.

Verse
G---------------------------------------------------------------|
D---------------------------------------------------------------|
A-22222---22222---22222---22222---------------------------------|
E---------------------------------00000---22222---00000---22222-|

G----------------------------------------------------------------|
D----------------------------------------------------------------|
A-22222---22222---22222---44446666-77777---99999---77777---99999-|
E----------------------------------------------------------------|


Pre Chorus (x4) "but good things come to those who wait..."
G---------------------------------|
D---------------------------------|
A-----6-------2-4-----2-------2-4-|
E-4-4---4-2-2-----0-0---0-2-2-----|

Interlude
G------------------------------|
D------------------------------|
A-22222---22222---22222--------|
E-------------------------0~~~-|

2nd and all other verses (x2)
G------------------------------------------------------------------------|
D------------------------------------------------------------------------|
A-222222222222222222222222-4444-6666-77777777-99999999-77777777-99999999-|
E------------------------------------------------------------------------|

Pre-chorus 2 (do this on the fourth repetition)
G-----------------------------|
D-----------------------------|
A-----6-------2-4-------2-----|
E-4-4---4-2-2-----2-0-0---0-2-|

Chorus "You don't belong..."
G-----------------------------------------------------------------|
D-----------------2-2-2-2-2-2-2-2---------------------------------|
A-2-2-2-2-2-2-2-2-----------------2-2-2-2-2-2-2-2-----------------|
E-------------------------------------------------2-2-2-2-2-2-2-2-|
continued
G---------------------------------------------------------------------|
D---------------------2-2-2-2-2-2-2-2---------------------------------|
A-xxx-2-2-2-2-2-2-2-2-----------------2-2-2-2-2-2-2-2-----------------|
E-----------------------------------------------------2-2-2-2-2-2-2-2-|

Post-chorus "I time bomb..."
G-----------------------------------------------------------------|
D-----------------------------------------------------------------|
A-2-2-2-2-2-2-2-2-------------------------------------------------| 
E-----------------0-0-0-0-0-0-0-0-4-4-4-4-4-4-4-4-2-2-2-2-2-2-2-2-|

G-----------------------------------------------------------------|
D-----------------------------------------------------------------|
A-2-2-2-2-2-2-2-2-------------------------------------------------| x2
E-----------------0-0-0-0-0-0-0-0-2-2-2-2-2-2-2-2-0-0-0-0-0-0-0-0-|

Bass Solo (x2)
G---8---8---11---11---8---8----11---11-------------------------------------|
D-99--99--99---99---99--99---99---99-----9---9---11---11---9---9---11---11-|
A--------------------------------------77--77--99---99---77--77--99---99---|
E--------------------------------------------------------------------------|

Pre-chorus 2
Chorus
Post-chorus (play first part once and then end with this)
G---------------------------------------------------------------------------|
D---------------------------------------------------------------------------|
A-2-2-2-2-2-2-2-2---------------------------------------------------2~~~~~~-|
E-----------------0-0-0-0-0-0-0-0-4-4-4-4-4-4-4-4-2-2-2-2-2-x-x-x-----------|
Comments