Blink 182 - Easy Target Chords & Tabs

 

Easy Target Chords & Tabs

Blink 182 Chords & Tabs

Version: 9 Type: Tab 0 ratings
1 star 2 stars 3 stars 4 stars 5 stars
comments

Easy Target Tab

Hey got this tab from the official tab book so its right.
Have a good time playing it.
If you want any other offical ones just email me or add me to MSN and i'll tell ya( jesso_boy@hotmail.com ).

Easy Target 
Blink-182


INTRO
e|--x-x-x-x--x-x-x-x-----x-x-x-x-----x-x-x-x-----||
B|--x-x-x-x--x-x-x-x-----1-1-1-1-----x-x-x-x-----||
G|--x-x-x-x--x-x-x-x-----1-1-1-1-----x-x-x-x-----|| Four times
D|--3-3-3-3--3-3-3-3-----1-1-1-1-----1-1-1-1-----||
A|--3-3-3-3--3-3-3-3-----0-0-0-0-----1-1-1-1-----||
E|--1-1-1-1--1-1-1-1-----x-x-x-x-----0-0-0-0-----||
Up, down strokes.



VERSE 1
(All her sig  -  nals...)
e|-----------------------------------------------||
B|-----------------------------------------------||
G|-----------------------------------------------|| Four times
D|-11-11-11-11--four  ----9-9-9--11-11-11---7~~~~||
A|--------------times ---------------------------||
E|-9--9--9--9-------------7-7-7---9--9--9---5~~~~||
Up, Down strokes




CHORUS
(hol-ly's look-ing...)
e|--x-x-x-x--x-x-x-x-----x-x-x-x-----x-x-x-x-----||
B|--x-x-x-x--x-x-x-x-----1-1-1-1-----x-x-x-x-----||
G|--x-x-x-x--x-x-x-x-----1-1-1-1-----x-x-x-x-----|| Four times
D|--3-3-3-3--3-3-3-3-----1-1-1-1-----1-1-1-1-----||
A|--3-3-3-3--3-3-3-3-----0-0-0-0-----1-1-1-1-----||
E|--1-1-1-1--1-1-1-1-----x-x-x-x-----0-0-0-0-----||
Up, down strokes.



Verse 2
(Sa-vor...)   (fleet   -   ing.)
E|------------------------------------------------||
B|------------------------------------------------||
G|------------------------------------------------|| Two times
D|--------------------/7/---------/11/--------/7--||
A|-5/~~~~~----------------------------------------||
E|-4/~~~~~------------/9/---------/9-/--------/5--||



[ Tab from: http://www.guitartabs.cc/tabs/b/blink_182/easy_target_tab_ver_9.html ]
CHORUS
(hol-ly's look-ing...)
e|--x-x-x-x--x-x-x-x-----x-x-x-x-----x-x-x-x-----||
B|--x-x-x-x--x-x-x-x-----1-1-1-1-----x-x-x-x-----||
G|--x-x-x-x--x-x-x-x-----1-1-1-1-----x-x-x-x-----|| Four times
D|--3-3-3-3--3-3-3-3-----1-1-1-1-----1-1-1-1-----||
A|--3-3-3-3--3-3-3-3-----0-0-0-0-----1-1-1-1-----||
E|--1-1-1-1--1-1-1-1-----x-x-x-x-----0-0-0-0-----||
Up, down strokes.



Bridge
(bet - ter, RUN...)     (Hol - ly let me out)
E|-x-x-x-x--x-x-x-x-----x-x-x-x----x--x--x--x----||
B|-3-3-3-3--3-3-3-3-----x-x-x-x----x--x--x--x----||
G|-1-1-1-1--1-1-1-1-----1-1-1-1----x--x--x--x----|| Three times
D|-0-0-0-0--0-0-0-0-----1-1-1-1----1--1--1--1----||
A|-x-x-x-x--x-x-x-x-----0-0-0-0----1--1--1--1----||
E|-x-x-x-x--x-x-x-x-----x-x-x-x----0--0--0--0----||
Up, Down Strokes



End of bridge
(                                 (Hol-ly, let me out!)
(Bet - ter, Run,Run,run,run,  run, run,   run ,    run)
E|----------x---x---x---x------x----x-------x-------x-||
B|----------3---3---3---3------x----x-------x-------x-||
G|----------1---1---1---1------3----3-------3-------3-||
D|----------0---0---0---0------3----3-------3-------3-||
A|----------x---x---x---x------1----1-------1-------1-||
E|----------x---x---x---x------x----x-------x-------x-||
down strokes here~~~~~~~~   Up and down stroke here




Interlude
E|---------------------------------------------------------------||
B|---------------------------------------------------------------||
G|---------------------------------------------------------------|| Nine
D|--4/--/6/--/7/--/9/--/7/-----7/--/9/--/11/-11/-/12/--/9/---9~~~|| Times
A|---------------------------------------------------------------||
E|--2/--/4/--/5/--/7/--/5/-----5/--/7/--/9/--9/--/10/--/7/---7~~~||
Rhythem starts quick then slows/fades down towards end of song not riff
Comments