Blink 182 - Easy Target Chords & Tabs

 

Easy Target Chords & Tabs

Blink 182 Chords & Tabs

Version: 1 Type: Bass Tab 0 ratings
1 star 2 stars 3 stars 4 stars 5 stars
comments

Easy Target Bass Tab

Band: Blink 182
Song: Easy Target
Tabbed by: Bryan "Denver" Lytle, btlhoppusca@aol.com
Intro:
G--------------------------------------
D--------------------------------------
A----------000---------------000-------
E-22222222-----0000-22222222-----0000--


G--------------------------------------
D--------------------------------------
A----------000---------------000-------
E-22222222-----0000-22222222-----0000--

Verse: (All her signals are....) 
G--------------------------------------
D--------------------------------------
A----------000-----00-2224445~--------- Let note ring
E-22222200-----000---------------------

G--------------------------------------
D--------------------------------------
A----------000-----00-2224445~--------- Let note ring
E-22222200-----000---------------------

G--------------------------------------
D--------------------------------------
A----------000-----00-2224445555555555- 
E-22222200-----000---------------------

G--------------------------------------
D--------------------------------------
A----------000-----00-2224445555555555- 
E-22222200-----000---------------------

Chorus: (Holly's looking dry.......)
G--------------------------------------
D--------------------------------------
A----------000---------------000-------
E-22222222-----0000-22222222-----0000--


G--------------------------------------
D--------------------------------------
A----------000---------------000-------
E-22222222-----0000-22222222-----0000--
[ Tab from: http://www.guitartabs.cc/tabs/b/blink_182/easy_target_btab.html ]
Verse: (shes got a mission.......)
G--------------------------------------
D--------------------------------------
A----------000-----00-2224445~--------- Let note ring
E-22222200-----000---------------------

G--------------------------------------
D--------------------------------------
A----------000-----00-2224445~--------- Let note ring
E-22222200-----000---------------------

G--------------------------------------
D--------------------------------------
A----------000-----00-2224445555555555- 
E-22222200-----000---------------------

G--------------------------------------
D--------------------------------------
A----------000-----00-2224445555555555- 
E-22222200-----000---------------------

Chorus: (Holly's looking dry.....)
G--------------------------------------
D--------------------------------------
A----------000---------------000-------
E-22222222-----0000-22222222-----0000--

G--------------------------------------
D--------------------------------------
A----------000---------------000-------
E-22222222-----0000-22222222-----0000--

Interlude (Holly let me out....)
G--------------------------------------
D--------------------------------------
A-55555555----------55555555-----------
E----------55550000----------55550000--

G--------------------------------------
D--------------------------------------
A-55555555----------55555555-----------
E----------55550000----------55550000--

outro
G--------------------------------------
D--------------------------------------
A----------0000---------------0000-----
E-22222222------0000-22222222------0000

G--------------------------------------
D--------------------------------------
A----------0000---------------0000-----
E-22222222------0000-22222222------0000

end on
E-2~-----------------------------------
Comments