Blink 182 - Dysentery Gary Chords & Tabs

 

Dysentery Gary Chords & Tabs

Blink 182 Chords & Tabs

Version: 5 Type: Tab 0 ratings
1 star 2 stars 3 stars 4 stars 5 stars
comments

Dysentery Gary Tab

INTRO
|-------------------------3-3-3-3--5-5-5-5-
|---------7-7-7-7-7-7-7-7-3-3-3-3--5-5-5-5-
|---------7-7-7-7-7-7-7-7-4-4-4-4--6-6-6-6-
|-7----7--7-7-7-7-7-7-7-7-5-5-5-5--7-7-7-7-
|-5----5--5-5-5-5-5-5-5-5-5-5-5-5--7-7-7-7-
|-------------------------3-3-3-3--5-5-5-5-
          (        play this twice        )

Verse  


|-----------------------3-xxxx-3---3---------------------
|-7-xxxx-7---7-xxxx-7---3-xxxx-3---3---------------------
|-7-xxxx-7---7-xxxx-7---4-xxxx-4---4---------------------
|-7-xxxx-7---7-xxxx-7---5-xxxx-5---5---------------------
|-5-xxxx-5---5-xxxx-5---5-xxxx-5---5---77-55-55-55-55-55-
|-----------------------3-xxxx-3---3---55-33-77-33-77-33-   x2


Instrumental Break 1 

|-----------------3-3-3-3-5-5-5-5--
|-----------------3-3-3-3-5-5-5-5--
|-----------------0-0-0-0-6-6-6-6--
|-7-7-7-7-7-7-7-7-0-0-0-0-7-7-7-7--
|-5-5-5-5-5-5-5-5-x-x-x-x-7-7-7-7--
|-----------------3-3-3-3-5-5-5-5--


Bridge (listen to song for the speed)

|-----------------3-3-3-3-5-5-5-5--
|-7-7-7-7-7-7-7-7-3-3-3-3-5-5-5-5--
|-7-7-7-7-7-7-7-7-4-4-4-4-6-6-6-6--
|-7-7-7-7-7-7-7-7-5-5-5-5-7-7-7-7--
|-5-5-5-5-5-5-5-5-5-5-5-5-7-7-7-7--
|-----------------3-3-3-3-5-5-5-5--


Chorus

|-------------------------------------
|-------------------------------------
|-------------------------------------
|-------------------------0-0-0-0-0-0-
|-------------0-0-0-0-0-0-------------
|-3-3-3-3-3-3-------------------------

|-----------------------------------------------
|-----------------------------------------------
|-----------------------------------------------
|-----------------------------------------------
|-2-2-2-2-2-2-------------0-0-0-0-2-2-2-4-4-4-4-
|-------------3-3-3-3-3-3-----------------------

Instrumental Break 2 x2
[ Tab from: http://www.guitartabs.cc/tabs/b/blink_182/dysentery_gary_tab_ver_5.html ]
|-----------------3-3-3-3-5-5-5-5--
|-7-7-7-7-7-7-7-7-3-3-3-3-5-5-5-5--
|-7-7-7-7-7-7-7-7-4-4-4-4-6-6-6-6--
|-7-7-7-7-7-7-7-7-5-5-5-5-7-7-7-7--
|-5-5-5-5-5-5-5-5-5-5-5-5-7-7-7-7--
|-----------------3-3-3-3-5-5-5-5--


Verse x2 


Instrumental break 1   


Bridge 2 
|-----------------3-3-3-3-5-5-5-5
|-----------------3-3-3-3-5-5-5-5
|-----------------0-0-0-0-6-6-6-6
|-7-7-7-7-7-7-7-7-0-0-0-0-7-7-7-7
|-5-5-5-5-5-5-5-5-x-x-x-x-7-7-7-7
|-----------------3-3-3-3-5-5-5-5

|-----------------3-3-3-3-5-5-5-5-
|-7-7-7-7-7-7-7-7-3-3-3-3-5-5-5-5-
|-7-7-7-7-7-7-7-7-4-4-4-4-6-6-6-6-
|-7-7-7-7-7-7-7-7-5-5-5-5-7-7-7-7-
|-5-5-5-5-5-5-5-5-5-5-5-5-7-7-7-7-
|-----------------3-3-3-3-5-5-5-5-

Chorus 


Instrumental break 4 
|-------3--/--5---------3--/--5---------3--/--5------------
|-7-----3--/--5----7----3--/--5----7----3--/--5----7-------
|-7-----4--/--6----7----4--/--6----7----4--/--6----7-------
|-7-----5--/--7----7----5--/--7----7----5--/--7----7-------
|-5-----5--/--7----5----5--/--7----5----5--/--7----5----5--
|-------3--/--5---------3--/--5---------3--/--5---------3--

Chorus 3 
|--------------------------------
|--------------------------------
|--------------------------------
|--------------------------------
|-5-5-5-5-5-5-5-5-7-7-7-7-7-7-7-7
|-3-3-3-3-3-3-3-3-5-5-5-5-5-5-5-5

|---------------------------------
|---------------------------------
|---------------------------------
|-7-7-7-7-7-7-7-7-4-4-4-4-4-4-4-4-
|-5-5-5-5-5-5-5-5-2-2-2-2-2-2-2-2-
|---------------------------------

|-----------------------------------------------
|-----------------------------------------7---7-
|-----------------------------------------7---7-
|-------------------------4-4-4-4-6-6-6-6-7---7-
|-5-5-5-5-5-5-5-5-7-7-7-7-2-2-2-2-4-4-4-4-5---5-
|-3-3-3-3-3-3-3-3-5-5-5-5-----------------------
Comments