Blink 182 - Dysentery Gary Chords & Tabs

 

Dysentery Gary Chords & Tabs

Blink 182 Chords & Tabs

Version: 3 Type: Tab 0 ratings
1 star 2 stars 3 stars 4 stars 5 stars
comments

Dysentery Gary Tab

Standard Tuning

Intro(hamonic)
e----------------------------
B----------------------------
G----------------------------
D-4--0--5--4--0-----4--------
A----------------------0--4--
E----------------3-----------

Verse(palm mute fast)
e------------------------------------------
B------------------------------------------
G-7-xxx-7--7-xxx-7-------------------------
D-7-xxx-7--7-xxx-7--5-xxx-5--7-xxx7xxx7-5--
A-5-xxx-5--5-xxx-5--5-xxx-5--7-xxx7xxx7-5--
E-------------------3-xxx-3--5-xxx5xxx5-3--

Bridge
e------------------------------------
B------------------------------------
G------------------------------------
D------------------------------------
A-5-5-5-5-5-5-5-5-5-5-5-5---4-4-4-4--
E------------------------------------
[ Tab from: http://www.guitartabs.cc/tabs/b/blink_182/dysentery_gary_tab_ver_3.html ]
Pre-Chorus
e------------------------------------
B------------------------------------
G-7-7-7-7-7-7-7-7--------------------
D-7-7-7-7-7-7-7-7--5-5-5-5--7-7-7-7--
A-5-5-5-5-5-5-5-5--5-5-5-5--7-7-7-7--
E------------------3-3-3-3--5-5-5-5--

Chorus
e-15--14--------------
B---------15---8-8-8--
G---------------------
D---------------------
A---------------------
E---------------------

Interlude 
e-----------------------------------------------------------
B-----------------------------------------------------------
G-----------------------------------------------------------
D-4-5-4--2---0----4-5-4--2---0----4-5-4--2---0----4-5-4--0--
A--------------------------0--------------------------------
E----------3-------------------------------3----------------

2nd Intro(harmonic)
e--------------------------
B---------------------(2)--
G---------------------(2)--
D-4--0--5--4--0-------(0)--
A--------------------------
E----------------3---------

The (2) do not play in harmonic.
    (2)
    (0)

Song Order:
Intro x4
Verse x2
Bridge x1
Pre-Chorus x1
Chorus x6
Intro x2
Verse x2
Bridge x2
Pre-Chorus x1
Chorus x6
Interlude x2
Chorus x6
2nd Intro x1
Comments