Blink 182 - Dysentary Gary Chords & Tabs

 

Dysentary Gary Chords & Tabs

Blink 182 Chords & Tabs

Version: 8 Type: Tab 0 ratings
1 star 2 stars 3 stars 4 stars 5 stars
comments

Dysentary Gary Tab

   
Artist: Blink 182
Song: Dysentary Gary
Tuning: Standard (Low to High: EADGBE)
Tabbed by: Chris (Statallica)

Ok, i've seen a few versions of this song, they all have somethin
wrong with them and they are skipping two entire parts of the song.
so here is the song in its entirety.

For order of riffs see bottom of page.

*palm-muted

Riff 1
E|--------------------------------------------------------------------|
B|--------------------------------------------------------------------|
G|--------------------------------------------------------------------|
D|--4-4-4-0-0-0-5-5-5-4-4-4-0-0-0-------4-4-4-------------------------|
A|--------------------------------------------0-0-0-4-4-4-4-4-4/5-----|
E|--------------------------------3-3-3-------------------------------|

Riff 2
     D5                            G5             A5
E|--------------------------------------------------------------------|
B|--------------------------------------------------------------------|
G|--7--7-7--7-7--7-7-7-7-7-7-7-7-x------------------------------------|
D|--7--7-7--7-7--7-7-7-7-7-7-7-7-x-5--5-5-5-5-x-7--7-7--7-7-7-7-------|
A|--5--5-5--5-5--5-5-5-5-5-5-5-5-x-5--5-5-5-5-x-7--7-7--7-7-7-7-------|
E|---------------------------------3--3-3-3-3-x-5--5-5--5-5-5-5-------|

Riff 3
     D5                  D5               G5
E|--------------------------------------------------------------------|
B|--------------------------------------------------------------------|
G|---7--7-7-7-7-7-------7--7-7-7-7-7---------*-*-*--------------------|
D|---7--7-7-7-7-7-------7--7-7-7-7-7------5--5-5-5-5-5----------------|
A|---5--5-5-5-5-5-------5--5-5-5-5-5------5--5-5-5-5-5----------------|
E|------*-*-*--------------*-*-*----------3--3-3-3-3-3----------------|
   A5
E|--------------------------------------------------------------------|
B|--------------------------------------------------------------------|
G|----*-*-*-----*-*-*-------------------------------------------------|
D|-7--7-7-7-7-7-7-7-7-7-7---------------------------------------------|
A|-7--7-7-7-7-7-7-7-7-7-7---------------------------------------------|
E|-5--5-5-5-5-5-5-5-5-5-5---------------------------------------------|

Riff 4
   Dsus2                           Gsus4             A
E|-0-0-0-0-0-0-0-0-0-0-0-0-0-0-0-0-0-0-0-0-0-0-0-0-0-0-0-0-0-0-0-0----|
B|-3-3-3-3-3-3-3-3-3-3-3-3-3-3-3-3-3-3-3-3-3-3-3-3-2-2-2-2-2-2-2-2----|
G|-2-2-2-2-2-2-2-2-2-2-2-2-2-2-2-2-0-0-0-0-0-0-0-0-2-2-2-2-2-2-2-2----|
D|-0-0-0-0-0-0-0-0-0-0-0-0-0-0-0-0-0-0-0-0-0-0-0-0-2-2-2-2-2-2-2-2----|
A|-0-0-0-0-0-0-0-0-0-0-0-0-0-0-0-0-0-0-0-0-0-0-0-0-0-0-0-0-0-0-0-0----|
E|--------------------------------------------------------------------|

Riff 5

E|--15-14-------------|
B|--------15----------|
G|-----------12-12-12-|
D|--------------------|
A|--------------------|
E|--------------------|
[ Tab from: http://www.guitartabs.cc/tabs/b/blink_182/dysentary_gary_tab_ver_8.html ]
Riff 6
     D5                     D5                    D5
E|-------------------------------------------------------------------|
B|-------------------------------------------------------------------|
G|-------------------------------------------------------------------|
D|---4-4h5-4------2---------4-4h5-4----2-----0---4-4h5-4----2-----0--|
A|---5------------------0---5-------------0------5-------------------|
E|-------------------3-----------------------------------------3-----|

E|-----------------------------------|
B|-----------------------------------|
G|-----------------------------------|
D|---4-4h5-4-------2----let ring-----|
A|---5-------------------------------|
E|-----------------------------------|

Riff 7

E|--------------------------------------------------------------------------------------|
B|--------------------------------------------------------------------------------------|
G|--------------------------------------------------------------------------------------|
D|--4-4-4-0-0-0-5-5-5-4-4-4-0-0-0---------5~--------------------------------------------|
A|----------------------------------------5~--------------------------------------------|
E|--------------------------------3-3-3-3/5~--------------------------------------------|

Song w/ lyrics:


Riff 1 (2x)
Riff 2 (2x)
Riff 3 (2x) w/ lyrics:

Gotta lotta heartache..He's a fuckin' weasel..His issues make my mind
ache..wanna make a deal? Cuz I like your little motions..You do with
your pigtails..What a nice creation..worth another night in jail..

Riff 4

Pre-Chorus
D5
He's a player diharea giver tried to grow his hair out but his friends
                           G5
were listening to slayer. I would like to find a friday night with him
A5
hangin' out with mom and tryin on his father's tights.

Riff 5 (6x) w/ lyrics:

Life just sucks
I lost the one
I'm giving up
She found someone
There's plenty more
Girls are such a drag

Riff 1
Riff 2
Riff 3 (2x) w/ lyrics:

So all you little ladies..Be sure to choose the right guys..I'll come
back to you maybe..I'll shower you with lies..Gotta lotta heartache..
He's a fuckin' weasel..His issues make my mind ache..Wanna make a
deal?

Riff 4 (2x) w/lyrics:

Ease away the problems and the pain, the girl chose the guy that makes
you wanna kick and scream. All along you wish that she would stay,
fuck the guy that took her ran away yea.

Pre-Chorus:
D5
He's a player diharea giver he tried to grow his hair out but his
                                  G5
friends were listenin to Slayer. I would like to find a Friday night
           A5
with him hangin' out with mom and tryin on his Father's tights.

Riff 5 (6x) w/ lyrics:

Life just sucks
I lost the one
I'm giving up
She found someone
There's plenty more
Girls are such a drag

Riff 6

Ending:
G5               A5              D5             B5
Fuck this place, I lost the war! I'm giving up. Your mom's a whore.
G5                   A5
There's plenty more. Girls are such a drag.

Riff 7

---------------->Chris (Statallica@aol.com)
Comments