Blink 182 - Dysentary Gary Chords & Tabs

 

Dysentary Gary Chords & Tabs

Blink 182 Chords & Tabs

Version: 4 Type: Tab 0 ratings
1 star 2 stars 3 stars 4 stars 5 stars
comments

Dysentary Gary Tab

   
Band blink182	
Song dysentery Gary
C.d. enema of the state
Tabbed by: Steve M and a friend

[ Tab from: http://www.guitartabs.cc/tabs/b/blink_182/dysentary_gary_tab_ver_4.html ]
e-----------------------------------
b-----------------------------------
g-----------------------------------
d-4---5-4----4--------------------
a---5-----5------4-4-4h-5--------
e-----------3---5------------------

verse:

D,G,A,G,
e------------
b------------
g-7---6-----
d-7----------
a---5---7----
e-------------

chorus:

D,G,A

e---------------
b---------------
g-7---6--------
d-7-------------
a---5---7-------
e----------------

Comments